  0
SECTION
  2
HEADER
  9
$ACADVER
  1
AC1015
  9
$ACADMAINTVER
 70
     6
  9
$DWGCODEPAGE
  3
ANSI_1254
  9
$INSBASE
 10
0.0
 20
0.0
 30
0.0
  9
$EXTMIN
 10
0.0
 20
0.0
 30
0.0
  9
$EXTMAX
 10
279.4
 20
215.9
 30
0.0
  9
$LIMMIN
 10
0.0
 20
0.0
  9
$LIMMAX
 10
279.4
 20
215.9
  9
$ORTHOMODE
 70
     0
  9
$REGENMODE
 70
     1
  9
$FILLMODE
 70
     1
  9
$QTEXTMODE
 70
     0
  9
$MIRRTEXT
 70
     1
  9
$LTSCALE
 40
1.0
  9
$ATTMODE
 70
     1
  9
$TEXTSIZE
 40
3.5
  9
$TRACEWID
 40
1.0
  9
$TEXTSTYLE
  7
Standard
  9
$CLAYER
  8
0
  9
$CELTYPE
  6
ByLayer
  9
$CECOLOR
 62
   256
  9
$CELTSCALE
 40
1.0
  9
$DISPSILH
 70
     0
  9
$DIMSCALE
 40
1.0
  9
$DIMASZ
 40
3.5
  9
$DIMEXO
 40
1.0
  9
$DIMDLI
 40
3.75
  9
$DIMRND
 40
0.0
  9
$DIMDLE
 40
0.0
  9
$DIMEXE
 40
1.0
  9
$DIMTP
 40
0.0
  9
$DIMTM
 40
0.0
  9
$DIMTXT
 40
3.5
  9
$DIMCEN
 40
2.5
  9
$DIMTSZ
 40
0.0
  9
$DIMTOL
 70
     0
  9
$DIMLIM
 70
     0
  9
$DIMTIH
 70
     1
  9
$DIMTOH
 70
     1
  9
$DIMSE1
 70
     0
  9
$DIMSE2
 70
     0
  9
$DIMTAD
 70
     1
  9
$DIMZIN
 70
     0
  9
$DIMBLK
  1

  9
$DIMASO
 70
     1
  9
$DIMSHO
 70
     1
  9
$DIMPOST
  1

  9
$DIMAPOST
  1

  9
$DIMALT
 70
     0
  9
$DIMALTD
 70
     3
  9
$DIMALTF
 40
0.0393700787
  9
$DIMLFAC
 40
1.0
  9
$DIMTOFL
 70
     1
  9
$DIMTVP
 40
0.0
  9
$DIMTIX
 70
     0
  9
$DIMSOXD
 70
     0
  9
$DIMSAH
 70
     0
  9
$DIMBLK1
  1

  9
$DIMBLK2
  1

  9
$DIMSTYLE
  2
ISO-25
  9
$DIMCLRD
 70
     0
  9
$DIMCLRE
 70
     0
  9
$DIMCLRT
 70
     0
  9
$DIMTFAC
 40
1.0
  9
$DIMGAP
 40
1.524
  9
$DIMJUST
 70
     0
  9
$DIMSD1
 70
     0
  9
$DIMSD2
 70
     0
  9
$DIMTOLJ
 70
     0
  9
$DIMTZIN
 70
     0
  9
$DIMALTZ
 70
     0
  9
$DIMALTTZ
 70
     0
  9
$DIMUPT
 70
     0
  9
$DIMDEC
 70
     2
  9
$DIMTDEC
 70
     2
  9
$DIMALTU
 70
     2
  9
$DIMALTTD
 70
     3
  9
$DIMTXSTY
  7
Standard
  9
$DIMAUNIT
 70
     0
  9
$DIMADEC
 70
     2
  9
$DIMALTRND
 40
0.0
  9
$DIMAZIN
 70
     0
  9
$DIMDSEP
 70
    44
  9
$DIMATFIT
 70
     3
  9
$DIMFRAC
 70
     0
  9
$DIMLDRBLK
  1

  9
$DIMLUNIT
 70
     2
  9
$DIMLWD
 70
    -2
  9
$DIMLWE
 70
    -2
  9
$DIMTMOVE
 70
     0
  9
$LUNITS
 70
     2
  9
$LUPREC
 70
     2
  9
$SKETCHINC
 40
1.0
  9
$FILLETRAD
 40
10.0
  9
$AUNITS
 70
     0
  9
$AUPREC
 70
     2
  9
$MENU
  1
.
  9
$ELEVATION
 40
0.0
  9
$PELEVATION
 40
0.0
  9
$THICKNESS
 40
0.0
  9
$LIMCHECK
 70
     0
  9
$CHAMFERA
 40
0.0
  9
$CHAMFERB
 40
0.0
  9
$CHAMFERC
 40
0.0
  9
$CHAMFERD
 40
0.0
  9
$SKPOLY
 70
     0
  9
$TDCREATE
 40
2459935.709517361
  9
$TDUCREATE
 40
2459935.584517361
  9
$TDUPDATE
 40
2459935.709517593
  9
$TDUUPDATE
 40
2459935.584517593
  9
$TDINDWG
 40
0.0000000116
  9
$TDUSRTIMER
 40
0.0000000116
  9
$USRTIMER
 70
     1
  9
$ANGBASE
 50
0.0
  9
$ANGDIR
 70
     0
  9
$PDMODE
 70
     0
  9
$PDSIZE
 40
-1.0
  9
$PLINEWID
 40
0.0
  9
$SPLFRAME
 70
     0
  9
$SPLINETYPE
 70
     6
  9
$SPLINESEGS
 70
     8
  9
$HANDSEED
  5
130
  9
$SURFTAB1
 70
     6
  9
$SURFTAB2
 70
     6
  9
$SURFTYPE
 70
     6
  9
$SURFU
 70
     6
  9
$SURFV
 70
     6
  9
$UCSBASE
  2

  9
$UCSNAME
  2

  9
$UCSORG
 10
0.0
 20
0.0
 30
0.0
  9
$UCSXDIR
 10
1.0
 20
0.0
 30
0.0
  9
$UCSYDIR
 10
0.0
 20
1.0
 30
0.0
  9
$UCSORTHOREF
  2

  9
$UCSORTHOVIEW
 70
     0
  9
$UCSORGTOP
 10
0.0
 20
0.0
 30
0.0
  9
$UCSORGBOTTOM
 10
0.0
 20
0.0
 30
0.0
  9
$UCSORGLEFT
 10
0.0
 20
0.0
 30
0.0
  9
$UCSORGRIGHT
 10
0.0
 20
0.0
 30
0.0
  9
$UCSORGFRONT
 10
0.0
 20
0.0
 30
0.0
  9
$UCSORGBACK
 10
0.0
 20
0.0
 30
0.0
  9
$PUCSBASE
  2

  9
$PUCSNAME
  2

  9
$PUCSORG
 10
0.0
 20
0.0
 30
0.0
  9
$PUCSXDIR
 10
1.0
 20
0.0
 30
0.0
  9
$PUCSYDIR
 10
0.0
 20
1.0
 30
0.0
  9
$PUCSORTHOREF
  2

  9
$PUCSORTHOVIEW
 70
     0
  9
$PUCSORGTOP
 10
0.0
 20
0.0
 30
0.0
  9
$PUCSORGBOTTOM
 10
0.0
 20
0.0
 30
0.0
  9
$PUCSORGLEFT
 10
0.0
 20
0.0
 30
0.0
  9
$PUCSORGRIGHT
 10
0.0
 20
0.0
 30
0.0
  9
$PUCSORGFRONT
 10
0.0
 20
0.0
 30
0.0
  9
$PUCSORGBACK
 10
0.0
 20
0.0
 30
0.0
  9
$USERI1
 70
     0
  9
$USERI2
 70
     0
  9
$USERI3
 70
     0
  9
$USERI4
 70
     0
  9
$USERI5
 70
     0
  9
$USERR1
 40
0.0
  9
$USERR2
 40
0.0
  9
$USERR3
 40
0.0
  9
$USERR4
 40
0.0
  9
$USERR5
 40
0.0
  9
$WORLDVIEW
 70
     1
  9
$SHADEDGE
 70
     3
  9
$SHADEDIF
 70
    70
  9
$TILEMODE
 70
     1
  9
$MAXACTVP
 70
    64
  9
$PINSBASE
 10
0.0
 20
0.0
 30
0.0
  9
$PLIMCHECK
 70
     0
  9
$PEXTMIN
 10
1.0000000000E+20
 20
1.0000000000E+20
 30
1.0000000000E+20
  9
$PEXTMAX
 10
-1.0000000000E+20
 20
-1.0000000000E+20
 30
-1.0000000000E+20
  9
$PLIMMIN
 10
0.0
 20
0.0
  9
$PLIMMAX
 10
420.0
 20
297.0
  9
$UNITMODE
 70
     0
  9
$VISRETAIN
 70
     1
  9
$PLINEGEN
 70
     0
  9
$PSLTSCALE
 70
     1
  9
$TREEDEPTH
 70
  3020
  9
$CMLSTYLE
  2
Standard
  9
$CMLJUST
 70
     0
  9
$CMLSCALE
 40
20.0
  9
$PROXYGRAPHICS
 70
     1
  9
$MEASUREMENT
 70
     1
  9
$CELWEIGHT
370
    -1
  9
$ENDCAPS
280
     0
  9
$JOINSTYLE
280
     0
  9
$LWDISPLAY
290
     1
  9
$INSUNITS
 70
     4
  9
$HYPERLINKBASE
  1

  9
$STYLESHEET
  1

  9
$XEDIT
290
     1
  9
$CEPSNTYPE
380
     0
  9
$PSTYLEMODE
290
     1
  9
$FINGERPRINTGUID
  2
{402166e3-ae0f-40bd-b46c-500d337dc7d1}
  9
$VERSIONGUID
  2
{FAEB1C32-E019-11D5-929B-00C0DF256EC4}
  9
$EXTNAMES
290
     1
  9
$PSVPSCALE
 40
0.0
  9
$OLESTARTUP
290
     0
  0
ENDSEC
  0
SECTION
  2
CLASSES
  0
CLASS
  1
ACDBDICTIONARYWDFLT
  2
AcDbDictionaryWithDefault
  3
ObjectDBX Classes
 90
        0
280
     0
281
     0
  0
CLASS
  1
VISUALSTYLE
  2
AcDbVisualStyle
  3
ObjectDBX Classes
 90
     4095
280
     0
281
     0
  0
CLASS
  1
MATERIAL
  2
AcDbMaterial
  3
ObjectDBX Classes
 90
     1153
280
     0
281
     0
  0
CLASS
  1
SCALE
  2
AcDbScale
  3
ObjectDBX Classes
 90
     1153
280
     0
281
     0
  0
CLASS
  1
TABLESTYLE
  2
AcDbTableStyle
  3
ObjectDBX Classes
 90
     4095
280
     0
281
     0
  0
CLASS
  1
MLEADERSTYLE
  2
AcDbMLeaderStyle
  3
ACDB_MLEADERSTYLE_CLASS
 90
     4095
280
     0
281
     0
  0
CLASS
  1
SUN
  2
AcDbSun
  3
SCENEOE
 90
     1153
280
     0
281
     0
  0
CLASS
  1
ACDBPLACEHOLDER
  2
AcDbPlaceHolder
  3
ObjectDBX Classes
 90
        0
280
     0
281
     0
  0
CLASS
  1
LAYOUT
  2
AcDbLayout
  3
ObjectDBX Classes
 90
        0
280
     0
281
     0
  0
ENDSEC
  0
SECTION
  2
TABLES
  0
TABLE
  2
VPORT
  5
8
330
0
100
AcDbSymbolTable
 70
     1
  0
VPORT
  5
29
330
8
100
AcDbSymbolTableRecord
100
AcDbViewportTableRecord
  2
*Active
 70
     0
 10
0.0
 20
0.0
 11
1.0
 21
1.0
 12
139.7
 22
107.95
 13
0.0
 23
0.0
 14
10.0
 24
10.0
 15
10.0
 25
10.0
 16
0.0
 26
0.0
 36
1.0
 17
0.0
 27
0.0
 37
0.0
 40
215.9
 41
1.2941176471
 42
50.0
 43
0.0
 44
0.0
 50
0.0
 51
0.0
 71
     0
 72
  2000
 73
     1
 74
     3
 75
     0
 76
     0
 77
     0
 78
     0
281
     0
 65
     1
110
0.0
120
0.0
130
0.0
111
1.0
121
0.0
131
0.0
112
0.0
122
1.0
132
0.0
 79
     0
146
0.0
  0
ENDTAB
  0
TABLE
  2
LTYPE
  5
5
330
0
100
AcDbSymbolTable
 70
     6
  0
LTYPE
  5
14
330
5
100
AcDbSymbolTableRecord
100
AcDbLinetypeTableRecord
  2
ByBlock
 70
     0
  3

 72
    65
 73
     0
 40
0.0
  0
LTYPE
  5
15
330
5
100
AcDbSymbolTableRecord
100
AcDbLinetypeTableRecord
  2
ByLayer
 70
     0
  3

 72
    65
 73
     0
 40
0.0
  0
LTYPE
  5
16
330
5
100
AcDbSymbolTableRecord
100
AcDbLinetypeTableRecord
  2
Continuous
 70
     0
  3
Solid line
 72
    65
 73
     0
 40
0.0
  0
LTYPE
  5
6E
330
5
100
AcDbSymbolTableRecord
100
AcDbLinetypeTableRecord
  2
HIDDEN
 70
     0
  3
Hidden __ __ __ __ __ __ __ __ __ __ __ __ __ __
 72
    65
 73
     2
 40
1.905
 49
1.27
 74
     0
 49
-0.635
 74
     0
  0
LTYPE
  5
6F
330
5
100
AcDbSymbolTableRecord
100
AcDbLinetypeTableRecord
  2
PHANTOM
 70
     0
  3
Phantom ______  __  __  ______  __  __  ______
 72
    65
 73
     6
 40
12.7
 49
6.35
 74
     0
 49
-1.27
 74
     0
 49
1.27
 74
     0
 49
-1.27
 74
     0
 49
1.27
 74
     0
 49
-1.27
 74
     0
  0
LTYPE
  5
70
330
5
100
AcDbSymbolTableRecord
100
AcDbLinetypeTableRecord
  2
CENTER
 70
     0
  3
Center ____ _ ____ _ ____ _ ____ _ ____ _ ____
 72
    65
 73
     4
 40
10.16
 49
6.35
 74
     0
 49
-1.27
 74
     0
 49
1.27
 74
     0
 49
-1.27
 74
     0
  0
LTYPE
  5
71
330
5
100
AcDbSymbolTableRecord
100
AcDbLinetypeTableRecord
  2
CENTERX2
 70
     0
  3
Center (2x) ________  __  ________  __  _____
 72
    65
 73
     4
 40
20.32
 49
12.7
 74
     0
 49
-2.54
 74
     0
 49
2.54
 74
     0
 49
-2.54
 74
     0
  0
LTYPE
  5
72
330
5
100
AcDbSymbolTableRecord
100
AcDbLinetypeTableRecord
  2
DOT2
 70
     0
  3
Dot (.5x) ........................................
 72
    65
 73
     2
 40
0.635
 49
0.0
 74
     0
 49
-0.635
 74
     0
  0
ENDTAB
  0
TABLE
  2
LAYER
  5
2
330
0
100
AcDbSymbolTable
 70
    17
  0
LAYER
  5
10
330
2
100
AcDbSymbolTableRecord
100
AcDbLayerTableRecord
  2
0
 70
     0
 62
     7
  6
Continuous
370
    -3
390
F
  0
LAYER
  5
73
330
2
100
AcDbSymbolTableRecord
100
AcDbLayerTableRecord
  2
FORMAT
 70
     0
 62
     7
  6
Continuous
370
    -3
390
F
  0
LAYER
  5
74
330
2
100
AcDbSymbolTableRecord
100
AcDbLayerTableRecord
  2
YARDIMCI_GEOMETRI
 70
     0
 62
    -6
  6
Continuous
290
     0
370
    -3
390
F
  0
LAYER
  5
75
330
2
100
AcDbSymbolTableRecord
100
AcDbLayerTableRecord
  2
SAYFA_CERCEVESI
 70
     0
 62
     7
  6
Continuous
370
    25
390
F
  0
LAYER
  5
76
330
2
100
AcDbSymbolTableRecord
100
AcDbLayerTableRecord
  2
ANTET
 70
     0
 62
     7
  6
Continuous
370
    -3
390
F
  0
LAYER
  5
77
330
2
100
AcDbSymbolTableRecord
100
AcDbLayerTableRecord
  2
OLCU
 70
     0
 62
   150
  6
Continuous
370
    -3
390
F
  0
LAYER
  5
78
330
2
100
AcDbSymbolTableRecord
100
AcDbLayerTableRecord
  2
METIN
 70
     0
 62
    96
  6
Continuous
370
    -3
390
F
  0
LAYER
  5
79
330
2
100
AcDbSymbolTableRecord
100
AcDbLayerTableRecord
  2
BALON
 70
     0
 62
     5
  6
Continuous
370
    -3
390
F
  0
LAYER
  5
7A
330
2
100
AcDbSymbolTableRecord
100
AcDbLayerTableRecord
  2
VURGU
 70
     0
 62
     7
  6
Continuous
370
    -3
390
F
  0
LAYER
  5
7B
330
2
100
AcDbSymbolTableRecord
100
AcDbLayerTableRecord
  2
SILIK
 70
     0
 62
     7
  6
Continuous
370
    -3
390
F
  0
LAYER
  5
7C
330
2
100
AcDbSymbolTableRecord
100
AcDbLayerTableRecord
  2
MODEL
 70
     0
 62
     7
  6
Continuous
370
    -3
390
F
  0
LAYER
  5
7D
330
2
100
AcDbSymbolTableRecord
100
AcDbLayerTableRecord
  2
DETAYLANDıRMA
 70
     0
 62
   190
  6
Continuous
370
    -3
390
F
  0
LAYER
  5
7E
330
2
100
AcDbSymbolTableRecord
100
AcDbLayerTableRecord
  2
TOLERANS
 70
     0
 62
   230
  6
Continuous
370
    -3
390
F
  0
LAYER
  5
7F
330
2
100
AcDbSymbolTableRecord
100
AcDbLayerTableRecord
  2
MERKEZ_CIZGILERI
 70
     0
 62
    30
  6
Continuous
370
    -3
390
F
  0
LAYER
  5
80
330
2
100
AcDbSymbolTableRecord
100
AcDbLayerTableRecord
  2
KESIT-DETAY_CIZGILERI
 70
     0
 62
     7
  6
Continuous
370
    -3
390
F
  0
LAYER
  5
81
330
2
100
AcDbSymbolTableRecord
100
AcDbLayerTableRecord
  2
\U+041E\U+0421\U+0415\U+0412\U+042B\U+0415
 70
     0
 62
     7
  6
Continuous
370
    -3
390
F
  0
LAYER
  5
82
330
2
100
AcDbSymbolTableRecord
100
AcDbLayerTableRecord
  2
\U+0412\U+041E\U+0414\U+042F\U+041D\U+042B\U+0415_\U+0417\U+041D\U+0410\U+041A\U+0418
 70
     0
 62
    11
  6
Continuous
370
    -3
390
F
  0
ENDTAB
  0
TABLE
  2
STYLE
  5
3
330
0
100
AcDbSymbolTable
 70
     1
  0
STYLE
  5
11
330
3
100
AcDbSymbolTableRecord
100
AcDbTextStyleTableRecord
  2
Standard
 70
     0
 40
0.0
 41
1.0
 50
0.0
 71
     0
 42
3.5
  3
txt
  4

  0
ENDTAB
  0
TABLE
  2
VIEW
  5
6
330
0
100
AcDbSymbolTable
 70
     0
  0
ENDTAB
  0
TABLE
  2
UCS
  5
7
330
0
100
AcDbSymbolTable
 70
     0
  0
ENDTAB
  0
TABLE
  2
APPID
  5
9
330
0
100
AcDbSymbolTable
 70
     1
  0
APPID
  5
12
330
9
100
AcDbSymbolTableRecord
100
AcDbRegAppTableRecord
  2
ACAD
 70
     0
  0
ENDTAB
  0
TABLE
  2
DIMSTYLE
  5
A
330
0
100
AcDbSymbolTable
 70
     1
100
AcDbDimStyleTable
  0
DIMSTYLE
105
27
330
A
100
AcDbSymbolTableRecord
100
AcDbDimStyleTableRecord
  2
ISO-25
 70
     0
 41
2.5
 42
0.625
 43
3.75
 44
1.25
 73
     0
 74
     0
 77
     1
 78
     8
140
2.5
141
2.5
143
0.0393700787
147
0.625
171
     3
172
     1
178
     0
271
     2
272
     2
274
     3
278
    44
283
     0
284
     8
340
11
  0
ENDTAB
  0
TABLE
  2
BLOCK_RECORD
  5
1
330
0
100
AcDbSymbolTable
 70
     2
  0
BLOCK_RECORD
  5
1F
330
1
100
AcDbSymbolTableRecord
100
AcDbBlockTableRecord
  2
*Model_Space
340
22
  0
BLOCK_RECORD
  5
1B
330
1
100
AcDbSymbolTableRecord
100
AcDbBlockTableRecord
  2
*Paper_Space
340
1E
  0
BLOCK_RECORD
  5
23
330
1
100
AcDbSymbolTableRecord
100
AcDbBlockTableRecord
  2
*Paper_Space0
340
26
  0
BLOCK_RECORD
  5
88
330
1
100
AcDbSymbolTableRecord
100
AcDbBlockTableRecord
  2
SW_CENTERMARKSYMBOL_0
340
0
102
{BLKREFS
331
93
102
}
  0
ENDTAB
  0
ENDSEC
  0
SECTION
  2
BLOCKS
  0
BLOCK
  5
20
330
1F
100
AcDbEntity
  8
0
100
AcDbBlockBegin
  2
*Model_Space
 70
     0
 10
0.0
 20
0.0
 30
0.0
  3
*Model_Space
  1

  0
ENDBLK
  5
21
330
1F
100
AcDbEntity
  8
0
100
AcDbBlockEnd
  0
BLOCK
  5
1C
330
1B
100
AcDbEntity
 67
     1
  8
0
100
AcDbBlockBegin
  2
*Paper_Space
 70
     0
 10
0.0
 20
0.0
 30
0.0
  3
*Paper_Space
  1

  0
ENDBLK
  5
1D
330
1B
100
AcDbEntity
 67
     1
  8
0
100
AcDbBlockEnd
  0
BLOCK
  5
24
330
23
100
AcDbEntity
  8
0
100
AcDbBlockBegin
  2
*Paper_Space0
 70
     0
 10
0.0
 20
0.0
 30
0.0
  3
*Paper_Space0
  1

  0
ENDBLK
  5
25
330
23
100
AcDbEntity
  8
0
100
AcDbBlockEnd
  0
BLOCK
  5
89
330
88
100
AcDbEntity
  8
0
100
AcDbBlockBegin
  2
SW_CENTERMARKSYMBOL_0
 70
     0
 10
0.0
 20
0.0
 30
0.0
  3
SW_CENTERMARKSYMBOL_0
  1

  0
LINE
  5
8B
330
88
100
AcDbEntity
  8
FORMAT
 62
     0
100
AcDbLine
 10
0.0
 20
0.0
 30
0.0
 11
0.0
 21
2.5
 31
0.0
  0
LINE
  5
8C
330
88
100
AcDbEntity
  8
FORMAT
 62
     0
100
AcDbLine
 10
0.0
 20
0.0
 30
0.0
 11
-2.5
 21
0.0
 31
0.0
  0
LINE
  5
8D
330
88
100
AcDbEntity
  8
FORMAT
 62
     0
100
AcDbLine
 10
0.0
 20
0.0
 30
0.0
 11
0.0
 21
-2.5
 31
0.0
  0
LINE
  5
8E
330
88
100
AcDbEntity
  8
FORMAT
 62
     0
100
AcDbLine
 10
0.0
 20
0.0
 30
0.0
 11
2.5
 21
0.0
 31
0.0
  0
LINE
  5
8F
330
88
100
AcDbEntity
  8
FORMAT
 62
     0
100
AcDbLine
 10
0.0
 20
5.0
 30
0.0
 11
0.0
 21
40.0
 31
0.0
  0
LINE
  5
90
330
88
100
AcDbEntity
  8
FORMAT
 62
     0
100
AcDbLine
 10
-5.0
 20
0.0
 30
0.0
 11
-40.0
 21
0.0
 31
0.0
  0
LINE
  5
91
330
88
100
AcDbEntity
  8
FORMAT
 62
     0
100
AcDbLine
 10
0.0
 20
-5.0
 30
0.0
 11
0.0
 21
-40.0
 31
0.0
  0
LINE
  5
92
330
88
100
AcDbEntity
  8
FORMAT
 62
     0
100
AcDbLine
 10
5.0
 20
0.0
 30
0.0
 11
40.0
 21
0.0
 31
0.0
  0
ENDBLK
  5
8A
330
88
100
AcDbEntity
  8
0
100
AcDbBlockEnd
  0
ENDSEC
  0
SECTION
  2
ENTITIES
  0
CIRCLE
  5
83
330
1F
100
AcDbEntity
  8
0
  6
Continuous
 62
     7
370
    25
100
AcDbCircle
 10
139.8323425481
 20
108.7440552885
 30
0.0
 40
30.70000000000002
  0
CIRCLE
  5
84
330
1F
100
AcDbEntity
  8
0
  6
Continuous
 62
     7
370
    25
100
AcDbCircle
 10
139.8323425481
 20
108.7440552885
 30
0.0
 40
37.50000000000001
  0
CIRCLE
  5
85
330
1F
100
AcDbEntity
  8
0
  6
Continuous
 62
     7
370
    25
100
AcDbCircle
 10
139.8323425481
 20
108.7440552885
 30
0.0
 40
30.5
  0
CIRCLE
  5
86
330
1F
100
AcDbEntity
  8
0
  6
Continuous
 62
     7
370
    25
100
AcDbCircle
 10
139.8323425481
 20
108.7440552885
 30
0.0
 40
53.50000000000001
  0
CIRCLE
  5
87
330
1F
100
AcDbEntity
  8
0
  6
Continuous
 62
     7
370
    25
100
AcDbCircle
 10
139.8323425481
 20
108.7440552885
 30
0.0
 40
54.00000000000003
  0
INSERT
  5
93
330
1F
100
AcDbEntity
  8
FORMAT
 62
     7
100
AcDbBlockReference
  2
SW_CENTERMARKSYMBOL_0
 10
139.8323425481
 20
108.7440552885
 30
0.0
  0
LINE
  5
94
330
1F
100
AcDbEntity
  8
0
  6
Continuous
 62
     7
370
    25
100
AcDbLine
 10
193.8323425481
 20
235.6747846462
 30
0.0
 11
193.8323425481
 21
270.1747846462
 31
0.0
  0
LINE
  5
95
330
1F
100
AcDbEntity
  8
0
  6
Continuous
 62
     7
370
    25
100
AcDbLine
 10
85.8323425481
 20
270.1747846462
 30
0.0
 11
85.8323425481
 21
235.6747846462
 31
0.0
  0
ARC
  5
96
330
1F
100
AcDbEntity
  8
0
  6
Continuous
 62
     7
370
    25
100
AcDbCircle
 10
193.3323425481
 20
270.1747846462
 30
0.0
 40
0.5
100
AcDbArc
 50
0.0
 51
90.0
  0
ARC
  5
97
330
1F
100
AcDbEntity
  8
0
  6
Continuous
 62
     7
370
    25
100
AcDbCircle
 10
86.3323425481
 20
270.1747846462
 30
0.0
 40
0.5
100
AcDbArc
 50
90.0
 51
180.0
  0
LINE
  5
98
330
1F
100
AcDbEntity
  8
0
  6
Continuous
 62
     7
370
    25
100
AcDbLine
 10
177.3323425481
 20
270.6747846462
 30
0.0
 11
177.3323425481
 21
352.6747846462
 31
0.0
  0
LINE
  5
99
330
1F
100
AcDbEntity
  8
0
  6
Continuous
 62
     7
370
    25
100
AcDbLine
 10
102.3323425481
 20
352.6747846462
 30
0.0
 11
102.3323425481
 21
270.6747846462
 31
0.0
  0
LINE
  5
9A
330
1F
100
AcDbEntity
  8
0
  6
Continuous
 62
     7
370
    25
100
AcDbLine
 10
193.8323425481
 20
235.6747846462
 30
0.0
 11
85.8323425481
 21
235.6747846462
 31
0.0
  0
LINE
  5
9B
330
1F
100
AcDbEntity
  8
0
  6
Continuous
 62
     7
370
    25
100
AcDbLine
 10
86.3323425481
 20
270.6747846462
 30
0.0
 11
193.3323425481
 21
270.6747846462
 31
0.0
  0
LINE
  5
9C
330
1F
100
AcDbEntity
  8
0
  6
Continuous
 62
     7
370
    25
100
AcDbLine
 10
98.8323425481
 20
234.6747846462
 30
0.0
 11
108.1073703878
 21
234.6747846462
 31
0.0
  0
LINE
  5
9D
330
1F
100
AcDbEntity
  8
0
  6
Continuous
 62
     7
370
    25
100
AcDbLine
 10
98.8323425481
 20
235.6747846462
 30
0.0
 11
98.8323425481
 21
234.6747846462
 31
0.0
  0
LINE
  5
9E
330
1F
100
AcDbEntity
  8
0
  6
Continuous
 62
     7
370
    25
100
AcDbLine
 10
139.8323425481
 20
235.6747846462
 30
0.0
 11
139.8323425481
 21
234.6747846462
 31
0.0
  0
LINE
  5
9F
330
1F
100
AcDbEntity
  8
0
  6
Continuous
 62
     7
370
    25
100
AcDbLine
 10
130.5573147084
 20
234.6747846462
 30
0.0
 11
139.8323425481
 21
234.6747846462
 31
0.0
  0
LINE
  5
A0
330
1F
100
AcDbEntity
  8
0
  6
Continuous
 62
     7
370
    25
100
AcDbLine
 10
130.5573147084
 20
223.6747846462
 30
0.0
 11
130.5573147084
 21
234.6747846462
 31
0.0
  0
LINE
  5
A1
330
1F
100
AcDbEntity
  8
0
  6
Continuous
 62
     7
370
    25
100
AcDbLine
 10
130.5573147084
 20
223.6747846462
 30
0.0
 11
108.1073703878
 21
223.6747846462
 31
0.0
  0
LINE
  5
A2
330
1F
100
AcDbEntity
  8
0
  6
Continuous
 62
     7
370
    25
100
AcDbLine
 10
108.1073703878
 20
234.6747846462
 30
0.0
 11
108.1073703878
 21
223.6747846462
 31
0.0
  0
LINE
  5
A3
330
1F
100
AcDbEntity
  8
0
  6
Continuous
 62
     7
370
    25
100
AcDbLine
 10
139.8323425481
 20
234.6747846462
 30
0.0
 11
149.1073703878
 21
234.6747846462
 31
0.0
  0
LINE
  5
A4
330
1F
100
AcDbEntity
  8
0
  6
Continuous
 62
     7
370
    25
100
AcDbLine
 10
180.8323425481
 20
235.6747846462
 30
0.0
 11
180.8323425481
 21
234.6747846462
 31
0.0
  0
LINE
  5
A5
330
1F
100
AcDbEntity
  8
0
  6
Continuous
 62
     7
370
    25
100
AcDbLine
 10
171.5573147084
 20
234.6747846462
 30
0.0
 11
180.8323425481
 21
234.6747846462
 31
0.0
  0
LINE
  5
A6
330
1F
100
AcDbEntity
  8
0
  6
Continuous
 62
     7
370
    25
100
AcDbLine
 10
171.5573147084
 20
223.6747846462
 30
0.0
 11
171.5573147084
 21
234.6747846462
 31
0.0
  0
LINE
  5
A7
330
1F
100
AcDbEntity
  8
0
  6
Continuous
 62
     7
370
    25
100
AcDbLine
 10
171.5573147084
 20
223.6747846462
 30
0.0
 11
149.1073703878
 21
223.6747846462
 31
0.0
  0
LINE
  5
A8
330
1F
100
AcDbEntity
  8
0
  6
Continuous
 62
     7
370
    25
100
AcDbLine
 10
149.1073703878
 20
234.6747846462
 30
0.0
 11
149.1073703878
 21
223.6747846462
 31
0.0
  0
LINE
  5
A9
330
1F
100
AcDbEntity
  8
0
  6
Continuous
 62
     7
370
    25
100
AcDbLine
 10
149.1073703878
 20
223.6747846462
 30
0.0
 11
130.5573147084
 21
223.6747846462
 31
0.0
  0
LINE
  5
AA
330
1F
100
AcDbEntity
  8
0
  6
Continuous
 62
     7
370
    25
100
AcDbLine
 10
177.3323425481
 20
352.6747846462
 30
0.0
 11
102.3323425481
 21
352.6747846462
 31
0.0
  0
LINE
  5
AB
330
1F
100
AcDbEntity
  8
0
  6
Continuous
 62
     7
370
    25
100
AcDbLine
 10
180.8323425481
 20
234.6747846462
 30
0.0
 11
180.8323425481
 21
223.6747846462
 31
0.0
  0
LINE
  5
AC
330
1F
100
AcDbEntity
  8
0
  6
Continuous
 62
     7
370
    25
100
AcDbLine
 10
180.8323425481
 20
223.6747846462
 30
0.0
 11
171.5573147084
 21
223.6747846462
 31
0.0
  0
LINE
  5
AD
330
1F
100
AcDbEntity
  8
0
  6
Continuous
 62
     7
370
    25
100
AcDbLine
 10
98.8323425481
 20
223.6747846462
 30
0.0
 11
98.8323425481
 21
234.6747846462
 31
0.0
  0
LINE
  5
AE
330
1F
100
AcDbEntity
  8
0
  6
Continuous
 62
     7
370
    25
100
AcDbLine
 10
108.1073703878
 20
223.6747846462
 30
0.0
 11
98.8323425481
 21
223.6747846462
 31
0.0
  0
LINE
  5
AF
330
1F
100
AcDbEntity
  8
0
  6
Continuous
 62
     1
370
    25
100
AcDbLine
 10
193.8323425481
 20
270.1747846462
 30
0.0
 11
85.8323425481
 21
270.1747846462
 31
0.0
  0
LINE
  5
B0
330
1F
100
AcDbEntity
  8
0
  6
Continuous
 62
     7
370
    25
100
AcDbLine
 10
275.1868345983
 20
54.7440552885
 30
0.0
 11
309.6868345983
 21
54.7440552885
 31
0.0
  0
LINE
  5
B1
330
1F
100
AcDbEntity
  8
0
  6
Continuous
 62
     7
370
    25
100
AcDbLine
 10
309.6868345983
 20
162.7440552885
 30
0.0
 11
275.1868345983
 21
162.7440552885
 31
0.0
  0
ARC
  5
B2
330
1F
100
AcDbEntity
  8
0
  6
Continuous
 62
     7
370
    25
100
AcDbCircle
 10
309.6868345983
 20
55.2440552885
 30
0.0
 40
0.5
100
AcDbArc
 50
270.0
 51
0.0
  0
ARC
  5
B3
330
1F
100
AcDbEntity
  8
0
  6
Continuous
 62
     7
370
    25
100
AcDbCircle
 10
309.6868345983
 20
162.2440552885
 30
0.0
 40
0.5
100
AcDbArc
 50
0.0
 51
90.0
  0
LINE
  5
B4
330
1F
100
AcDbEntity
  8
0
  6
Continuous
 62
     7
370
    25
100
AcDbLine
 10
310.1868345983
 20
71.2440552885
 30
0.0
 11
392.1868345983
 21
71.2440552885
 31
0.0
  0
LINE
  5
B5
330
1F
100
AcDbEntity
  8
0
  6
Continuous
 62
     7
370
    25
100
AcDbLine
 10
392.1868345983
 20
146.2440552885
 30
0.0
 11
310.1868345983
 21
146.2440552885
 31
0.0
  0
LINE
  5
B6
330
1F
100
AcDbEntity
  8
0
  6
Continuous
 62
     7
370
    25
100
AcDbLine
 10
263.1868345983
 20
65.7440552885
 30
0.0
 11
274.1868345983
 21
65.7440552885
 31
0.0
  0
LINE
  5
B7
330
1F
100
AcDbEntity
  8
0
  6
Continuous
 62
     7
370
    25
100
AcDbLine
 10
274.1868345983
 20
151.7440552885
 30
0.0
 11
263.1868345983
 21
151.7440552885
 31
0.0
  0
LINE
  5
B8
330
1F
100
AcDbEntity
  8
0
  6
Continuous
 62
     7
370
    25
100
AcDbLine
 10
275.1868345983
 20
108.7440552885
 30
0.0
 11
275.1868345983
 21
162.7440552885
 31
0.0
  0
LINE
  5
B9
330
1F
100
AcDbEntity
  8
0
  6
Continuous
 62
     7
370
    25
100
AcDbLine
 10
275.1868345983
 20
54.7440552885
 30
0.0
 11
275.1868345983
 21
108.7440552885
 31
0.0
  0
LINE
  5
BA
330
1F
100
AcDbEntity
  8
0
  6
Continuous
 62
     7
370
    25
100
AcDbLine
 10
310.1868345983
 20
108.7440552885
 30
0.0
 11
310.1868345983
 21
162.2440552885
 31
0.0
  0
LINE
  5
BB
330
1F
100
AcDbEntity
  8
0
  6
Continuous
 62
     7
370
    25
100
AcDbLine
 10
310.1868345983
 20
55.2440552885
 30
0.0
 11
310.1868345983
 21
108.7440552885
 31
0.0
  0
LINE
  5
BC
330
1F
100
AcDbEntity
  8
0
  6
Continuous
 62
     7
370
    25
100
AcDbLine
 10
274.1868345983
 20
85.0726942517
 30
0.0
 11
274.1868345983
 21
79.7177544317
 31
0.0
  0
LINE
  5
BD
330
1F
100
AcDbEntity
  8
0
  6
Continuous
 62
     7
370
    25
100
AcDbLine
 10
275.1868345983
 20
85.0726942517
 30
0.0
 11
274.1868345983
 21
85.0726942517
 31
0.0
  0
LINE
  5
BE
330
1F
100
AcDbEntity
  8
0
  6
Continuous
 62
     7
370
    25
100
AcDbLine
 10
275.1868345983
 20
61.4013332149
 30
0.0
 11
274.1868345983
 21
61.4013332149
 31
0.0
  0
LINE
  5
BF
330
1F
100
AcDbEntity
  8
0
  6
Continuous
 62
     7
370
    25
100
AcDbLine
 10
274.1868345983
 20
66.7562730349
 30
0.0
 11
274.1868345983
 21
61.4013332149
 31
0.0
  0
LINE
  5
C0
330
1F
100
AcDbEntity
  8
0
  6
Continuous
 62
     7
370
    25
100
AcDbLine
 10
263.1868345983
 20
66.7562730349
 30
0.0
 11
274.1868345983
 21
66.7562730349
 31
0.0
  0
LINE
  5
C1
330
1F
100
AcDbEntity
  8
0
  6
Continuous
 62
     7
370
    25
100
AcDbLine
 10
263.1868345983
 20
66.7562730349
 30
0.0
 11
263.1868345983
 21
79.7177544317
 31
0.0
  0
LINE
  5
C2
330
1F
100
AcDbEntity
  8
0
  6
Continuous
 62
     7
370
    25
100
AcDbLine
 10
274.1868345983
 20
79.7177544317
 30
0.0
 11
263.1868345983
 21
79.7177544317
 31
0.0
  0
LINE
  5
C3
330
1F
100
AcDbEntity
  8
0
  6
Continuous
 62
     7
370
    25
100
AcDbLine
 10
274.1868345983
 20
132.4154163252
 30
0.0
 11
274.1868345983
 21
121.7055366853
 31
0.0
  0
LINE
  5
C4
330
1F
100
AcDbEntity
  8
0
  6
Continuous
 62
     7
370
    25
100
AcDbLine
 10
275.1868345983
 20
132.4154163252
 30
0.0
 11
274.1868345983
 21
132.4154163252
 31
0.0
  0
LINE
  5
C5
330
1F
100
AcDbEntity
  8
0
  6
Continuous
 62
     7
370
    25
100
AcDbLine
 10
274.1868345983
 20
95.7825738916
 30
0.0
 11
274.1868345983
 21
85.0726942517
 31
0.0
  0
LINE
  5
C6
330
1F
100
AcDbEntity
  8
0
  6
Continuous
 62
     7
370
    25
100
AcDbLine
 10
263.1868345983
 20
95.7825738916
 30
0.0
 11
274.1868345983
 21
95.7825738916
 31
0.0
  0
LINE
  5
C7
330
1F
100
AcDbEntity
  8
0
  6
Continuous
 62
     7
370
    25
100
AcDbLine
 10
263.1868345983
 20
95.7825738916
 30
0.0
 11
263.1868345983
 21
121.7055366853
 31
0.0
  0
LINE
  5
C8
330
1F
100
AcDbEntity
  8
0
  6
Continuous
 62
     7
370
    25
100
AcDbLine
 10
274.1868345983
 20
121.7055366853
 30
0.0
 11
263.1868345983
 21
121.7055366853
 31
0.0
  0
LINE
  5
C9
330
1F
100
AcDbEntity
  8
0
  6
Continuous
 62
     7
370
    25
100
AcDbLine
 10
263.1868345983
 20
79.7177544317
 30
0.0
 11
263.1868345983
 21
95.7825738916
 31
0.0
  0
LINE
  5
CA
330
1F
100
AcDbEntity
  8
0
  6
Continuous
 62
     7
370
    25
100
AcDbLine
 10
263.1868345983
 20
137.7703561452
 30
0.0
 11
274.1868345983
 21
137.7703561452
 31
0.0
  0
LINE
  5
CB
330
1F
100
AcDbEntity
  8
0
  6
Continuous
 62
     7
370
    25
100
AcDbLine
 10
263.1868345983
 20
121.7055366853
 30
0.0
 11
263.1868345983
 21
137.7703561452
 31
0.0
  0
LINE
  5
CC
330
1F
100
AcDbEntity
  8
0
  6
Continuous
 62
     7
370
    25
100
AcDbLine
 10
274.1868345983
 20
156.086777362
 30
0.0
 11
274.1868345983
 21
150.731837542
 31
0.0
  0
LINE
  5
CD
330
1F
100
AcDbEntity
  8
0
  6
Continuous
 62
     7
370
    25
100
AcDbLine
 10
275.1868345983
 20
156.086777362
 30
0.0
 11
274.1868345983
 21
156.086777362
 31
0.0
  0
LINE
  5
CE
330
1F
100
AcDbEntity
  8
0
  6
Continuous
 62
     7
370
    25
100
AcDbLine
 10
274.1868345983
 20
137.7703561452
 30
0.0
 11
274.1868345983
 21
132.4154163252
 31
0.0
  0
LINE
  5
CF
330
1F
100
AcDbEntity
  8
0
  6
Continuous
 62
     7
370
    25
100
AcDbLine
 10
274.1868345983
 20
150.731837542
 30
0.0
 11
263.1868345983
 21
150.731837542
 31
0.0
  0
LINE
  5
D0
330
1F
100
AcDbEntity
  8
0
  6
Continuous
 62
     7
370
    25
100
AcDbLine
 10
263.1868345983
 20
137.7703561452
 30
0.0
 11
263.1868345983
 21
150.731837542
 31
0.0
  0
LINE
  5
D1
330
1F
100
AcDbEntity
  8
0
  6
Continuous
 62
     7
370
    25
100
AcDbLine
 10
392.1868345983
 20
108.7440552885
 30
0.0
 11
392.1868345983
 21
146.2440552885
 31
0.0
  0
LINE
  5
D2
330
1F
100
AcDbEntity
  8
0
  6
Continuous
 62
     7
370
    25
100
AcDbLine
 10
392.1868345983
 20
71.2440552885
 30
0.0
 11
392.1868345983
 21
108.7440552885
 31
0.0
  0
LINE
  5
D3
330
1F
100
AcDbEntity
  8
0
  6
Continuous
 62
     7
370
    25
100
AcDbLine
 10
263.1868345983
 20
65.7440552885
 30
0.0
 11
263.1868345983
 21
66.7562730349
 31
0.0
  0
LINE
  5
D4
330
1F
100
AcDbEntity
  8
0
  6
Continuous
 62
     7
370
    25
100
AcDbLine
 10
263.1868345983
 20
150.731837542
 30
0.0
 11
263.1868345983
 21
151.7440552885
 31
0.0
  0
LINE
  5
D5
330
1F
100
AcDbEntity
  8
0
  6
Continuous
 62
     1
370
    25
100
AcDbLine
 10
309.6868345983
 20
108.7440552885
 30
0.0
 11
309.6868345983
 21
162.7440552885
 31
0.0
  0
LINE
  5
D6
330
1F
100
AcDbEntity
  8
0
  6
Continuous
 62
     1
370
    25
100
AcDbLine
 10
309.6868345983
 20
54.7440552885
 30
0.0
 11
309.6868345983
 21
108.7440552885
 31
0.0
  0
LINE
  5
D7
330
1F
100
AcDbEntity
  8
0
  6
Continuous
 62
     7
370
    25
100
AcDbLine
 10
6.6541188902
 20
162.7440552885
 30
0.0
 11
-27.8458811098
 21
162.7440552885
 31
0.0
  0
LINE
  5
D8
330
1F
100
AcDbEntity
  8
0
  6
Continuous
 62
     7
370
    25
100
AcDbLine
 10
-27.8458811098
 20
54.7440552885
 30
0.0
 11
6.6541188902
 21
54.7440552885
 31
0.0
  0
ARC
  5
D9
330
1F
100
AcDbEntity
  8
0
  6
Continuous
 62
     7
370
    25
100
AcDbCircle
 10
-27.8458811098
 20
162.2440552885
 30
0.0
 40
0.5000000000000036
100
AcDbArc
 50
90.0
 51
180.0
  0
ARC
  5
DA
330
1F
100
AcDbEntity
  8
0
  6
Continuous
 62
     7
370
    25
100
AcDbCircle
 10
-27.8458811098
 20
55.2440552885
 30
0.0
 40
0.5000000000000036
100
AcDbArc
 50
180.0
 51
270.0
  0
LINE
  5
DB
330
1F
100
AcDbEntity
  8
0
  6
Continuous
 62
     7
370
    25
100
AcDbLine
 10
-28.3458811098
 20
146.2440552885
 30
0.0
 11
-110.3458811098
 21
146.2440552885
 31
0.0
  0
LINE
  5
DC
330
1F
100
AcDbEntity
  8
0
  6
Continuous
 62
     7
370
    25
100
AcDbLine
 10
-110.3458811098
 20
71.2440552885
 30
0.0
 11
-28.3458811098
 21
71.2440552885
 31
0.0
  0
LINE
  5
DD
330
1F
100
AcDbEntity
  8
0
  6
Continuous
 62
     7
370
    25
100
AcDbLine
 10
7.6541188902
 20
65.7440552885
 30
0.0
 11
18.6541188902
 21
65.7440552885
 31
0.0
  0
LINE
  5
DE
330
1F
100
AcDbEntity
  8
0
  6
Continuous
 62
     7
370
    25
100
AcDbLine
 10
18.6541188902
 20
151.7440552885
 30
0.0
 11
7.6541188902
 21
151.7440552885
 31
0.0
  0
LINE
  5
DF
330
1F
100
AcDbEntity
  8
0
  6
Continuous
 62
     7
370
    25
100
AcDbLine
 10
6.6541188902
 20
162.7440552885
 30
0.0
 11
6.6541188902
 21
54.7440552885
 31
0.0
  0
LINE
  5
E0
330
1F
100
AcDbEntity
  8
0
  6
Continuous
 62
     7
370
    25
100
AcDbLine
 10
-28.3458811098
 20
162.2440552885
 30
0.0
 11
-28.3458811098
 21
55.2440552885
 31
0.0
  0
LINE
  5
E1
330
1F
100
AcDbEntity
  8
0
  6
Continuous
 62
     7
370
    25
100
AcDbLine
 10
18.6541188902
 20
137.7703561452
 30
0.0
 11
18.6541188902
 21
121.7055366853
 31
0.0
  0
LINE
  5
E2
330
1F
100
AcDbEntity
  8
0
  6
Continuous
 62
     7
370
    25
100
AcDbLine
 10
18.6541188902
 20
121.7055366853
 30
0.0
 11
7.6541188902
 21
121.7055366853
 31
0.0
  0
LINE
  5
E3
330
1F
100
AcDbEntity
  8
0
  6
Continuous
 62
     7
370
    25
100
AcDbLine
 10
7.6541188902
 20
137.7703561452
 30
0.0
 11
18.6541188902
 21
137.7703561452
 31
0.0
  0
LINE
  5
E4
330
1F
100
AcDbEntity
  8
0
  6
Continuous
 62
     7
370
    25
100
AcDbLine
 10
18.6541188902
 20
95.7825738916
 30
0.0
 11
18.6541188902
 21
79.7177544317
 31
0.0
  0
LINE
  5
E5
330
1F
100
AcDbEntity
  8
0
  6
Continuous
 62
     7
370
    25
100
AcDbLine
 10
18.6541188902
 20
79.7177544317
 30
0.0
 11
7.6541188902
 21
79.7177544317
 31
0.0
  0
LINE
  5
E6
330
1F
100
AcDbEntity
  8
0
  6
Continuous
 62
     7
370
    25
100
AcDbLine
 10
7.6541188902
 20
95.7825738916
 30
0.0
 11
18.6541188902
 21
95.7825738916
 31
0.0
  0
LINE
  5
E7
330
1F
100
AcDbEntity
  8
0
  6
Continuous
 62
     7
370
    25
100
AcDbLine
 10
7.6541188902
 20
132.4154163252
 30
0.0
 11
7.6541188902
 21
137.7703561452
 31
0.0
  0
LINE
  5
E8
330
1F
100
AcDbEntity
  8
0
  6
Continuous
 62
     7
370
    25
100
AcDbLine
 10
6.6541188902
 20
132.4154163252
 30
0.0
 11
7.6541188902
 21
132.4154163252
 31
0.0
  0
LINE
  5
E9
330
1F
100
AcDbEntity
  8
0
  6
Continuous
 62
     7
370
    25
100
AcDbLine
 10
6.6541188902
 20
156.086777362
 30
0.0
 11
7.6541188902
 21
156.086777362
 31
0.0
  0
LINE
  5
EA
330
1F
100
AcDbEntity
  8
0
  6
Continuous
 62
     7
370
    25
100
AcDbLine
 10
7.6541188902
 20
150.731837542
 30
0.0
 11
7.6541188902
 21
156.086777362
 31
0.0
  0
LINE
  5
EB
330
1F
100
AcDbEntity
  8
0
  6
Continuous
 62
     7
370
    25
100
AcDbLine
 10
18.6541188902
 20
150.731837542
 30
0.0
 11
7.6541188902
 21
150.731837542
 31
0.0
  0
LINE
  5
EC
330
1F
100
AcDbEntity
  8
0
  6
Continuous
 62
     7
370
    25
100
AcDbLine
 10
18.6541188902
 20
150.731837542
 30
0.0
 11
18.6541188902
 21
137.7703561452
 31
0.0
  0
LINE
  5
ED
330
1F
100
AcDbEntity
  8
0
  6
Continuous
 62
     7
370
    25
100
AcDbLine
 10
7.6541188902
 20
61.4013332149
 30
0.0
 11
7.6541188902
 21
66.7562730349
 31
0.0
  0
LINE
  5
EE
330
1F
100
AcDbEntity
  8
0
  6
Continuous
 62
     7
370
    25
100
AcDbLine
 10
6.6541188902
 20
61.4013332149
 30
0.0
 11
7.6541188902
 21
61.4013332149
 31
0.0
  0
LINE
  5
EF
330
1F
100
AcDbEntity
  8
0
  6
Continuous
 62
     7
370
    25
100
AcDbLine
 10
6.6541188902
 20
85.0726942517
 30
0.0
 11
7.6541188902
 21
85.0726942517
 31
0.0
  0
LINE
  5
F0
330
1F
100
AcDbEntity
  8
0
  6
Continuous
 62
     7
370
    25
100
AcDbLine
 10
7.6541188902
 20
79.7177544317
 30
0.0
 11
7.6541188902
 21
85.0726942517
 31
0.0
  0
LINE
  5
F1
330
1F
100
AcDbEntity
  8
0
  6
Continuous
 62
     7
370
    25
100
AcDbLine
 10
7.6541188902
 20
66.7562730349
 30
0.0
 11
18.6541188902
 21
66.7562730349
 31
0.0
  0
LINE
  5
F2
330
1F
100
AcDbEntity
  8
0
  6
Continuous
 62
     7
370
    25
100
AcDbLine
 10
18.6541188902
 20
79.7177544317
 30
0.0
 11
18.6541188902
 21
66.7562730349
 31
0.0
  0
LINE
  5
F3
330
1F
100
AcDbEntity
  8
0
  6
Continuous
 62
     7
370
    25
100
AcDbLine
 10
7.6541188902
 20
85.0726942517
 30
0.0
 11
7.6541188902
 21
95.7825738916
 31
0.0
  0
LINE
  5
F4
330
1F
100
AcDbEntity
  8
0
  6
Continuous
 62
     7
370
    25
100
AcDbLine
 10
7.6541188902
 20
121.7055366853
 30
0.0
 11
7.6541188902
 21
132.4154163252
 31
0.0
  0
LINE
  5
F5
330
1F
100
AcDbEntity
  8
0
  6
Continuous
 62
     7
370
    25
100
AcDbLine
 10
18.6541188902
 20
121.7055366853
 30
0.0
 11
18.6541188902
 21
95.7825738916
 31
0.0
  0
LINE
  5
F6
330
1F
100
AcDbEntity
  8
0
  6
Continuous
 62
     7
370
    25
100
AcDbLine
 10
-110.3458811098
 20
146.2440552885
 30
0.0
 11
-110.3458811098
 21
71.2440552885
 31
0.0
  0
LINE
  5
F7
330
1F
100
AcDbEntity
  8
0
  6
Continuous
 62
     7
370
    25
100
AcDbLine
 10
18.6541188902
 20
66.7562730349
 30
0.0
 11
18.6541188902
 21
65.7440552885
 31
0.0
  0
LINE
  5
F8
330
1F
100
AcDbEntity
  8
0
  6
Continuous
 62
     7
370
    25
100
AcDbLine
 10
18.6541188902
 20
151.7440552885
 30
0.0
 11
18.6541188902
 21
150.731837542
 31
0.0
  0
LINE
  5
F9
330
1F
100
AcDbEntity
  8
0
  6
Continuous
 62
     1
370
    25
100
AcDbLine
 10
-27.8458811098
 20
162.7440552885
 30
0.0
 11
-27.8458811098
 21
54.7440552885
 31
0.0
  0
LINE
  5
FA
330
1F
100
AcDbEntity
  8
0
  6
Continuous
 62
     7
370
    25
100
AcDbLine
 10
345.2402362403
 20
-26.2758078512
 30
0.0
 11
287.257480183
 21
7.1969247335
 31
0.0
  0
LINE
  5
FB
330
1F
100
AcDbEntity
  8
0
  6
Continuous
 62
     7
370
    25
100
AcDbLine
 10
249.7605277092
 20
-57.756739945
 30
0.0
 11
307.7432837665
 21
-91.2294725298
 31
0.0
  0
SPLINE
  5
FC
330
1F
100
AcDbEntity
  8
0
  6
Continuous
 62
     7
370
    25
100
AcDbSpline
210
0.0
220
0.0
230
1.0
 70
     8
 71
     3
 72
    21
 73
    17
 74
     0
 42
0.00000001
 43
0.00000001
 40
0.0
 40
0.0
 40
0.0
 40
0.0
 40
0.0214092189095679
 40
0.0996905328315263
 40
0.1780641505053576
 40
0.2565332791207164
 40
0.3350940749320086
 40
0.4137375472738226
 40
0.4924516245796197
 40
0.5712230014594658
 40
0.6500385577504801
 40
0.7288862964139484
 40
0.8077558518397373
 40
0.8866386694315473
 40
0.9655279650831715
 40
1.0
 40
1.0
 40
1.0
 40
1.0
 10
348.0483874008298
 20
-10.0400000702197
 30
0.0
 10
347.9105759307126
 20
-10.00899064880716
 30
0.0
 10
347.2688664435846
 20
-9.864597443409458
 30
0.0
 10
346.0757363412934
 20
-9.719033456993618
 30
0.0
 10
344.4716551656803
 20
-9.607257833500562
 30
0.0
 10
342.8233540911397
 20
-9.617011402175892
 30
0.0
 10
341.1392569880551
 20
-9.737416910096739
 30
0.0
 10
339.4220158580176
 20
-9.971254730425171
 30
0.0
 10
337.6759906746804
 20
-10.31725115149746
 30
0.0
 10
335.9052027683314
 20
-10.77488259915583
 30
0.0
 10
334.113840421768
 20
-11.34287889656927
 30
0.0
 10
332.3061096901208
 20
-12.02043203880217
 30
0.0
 10
330.4861779334371
 20
-12.80392389948282
 30
0.0
 10
328.6584368724352
 20
-13.69889180584657
 30
0.0
 10
327.1702705730714
 20
-14.49221349321061
 30
0.0
 10
326.293579377972
 20
-15.02286812527564
 30
0.0
 10
326.0269864459978
 20
-15.18423483571909
 30
0.0
  0
LINE
  5
FD
330
1F
100
AcDbEntity
  8
0
  6
Continuous
 62
     7
370
    25
100
AcDbLine
 10
288.5271674916
 20
-80.1362447303
 30
0.0
 11
288.5151006005
 21
-80.7956592097
 31
0.0
  0
SPLINE
  5
FE
330
1F
100
AcDbEntity
  8
0
  6
Continuous
 62
     7
370
    25
100
AcDbSpline
210
0.0
220
0.0
230
1.0
 70
     8
 71
     3
 72
    21
 73
    17
 74
     0
 42
0.00000001
 43
0.00000001
 40
0.0
 40
0.0
 40
0.0
 40
0.0
 40
0.0420650254615223
 40
0.1219502240236895
 40
0.2018466450225043
 40
0.2817419151791323
 40
0.3616297800351375
 40
0.4415024912728529
 40
0.5213503773072354
 40
0.601161856636605
 40
0.6809237203706521
 40
0.7606218010902887
 40
0.840242124643484
 40
0.9197725692584594
 40
0.9992049218419236
 40
1.0
 40
1.0
 40
1.0
 40
1.0
 10
288.5151006004899
 20
-80.79565920969026
 30
0.0
 10
288.5175498193902
 20
-81.1655078222114
 30
0.0
 10
288.5246503212989
 20
-82.23773161518305
 30
0.0
 10
288.6035501522097
 20
-83.9731565952878
 30
0.0
 10
288.7805484108874
 20
-85.97958259134256
 30
0.0
 10
289.0462213283845
 20
-87.92419051519421
 30
0.0
 10
289.398552412814
 20
-89.80322696129858
 30
0.0
 10
289.8372405582851
 20
-91.6120712471619
 30
0.0
 10
290.3612311128187
 20
-93.34653934160703
 30
0.0
 10
290.9694505538667
 20
-95.00241180356271
 30
0.0
 10
291.6602723793527
 20
-96.5760214955105
 30
0.0
 10
292.432862470277
 20
-98.06247911875265
 30
0.0
 10
293.2822992067048
 20
-99.46231317763477
 30
0.0
 10
294.2177187385043
 20
-100.7568881595655
 30
0.0
 10
294.8727562465872
 20
-101.5903857230189
 30
0.0
 10
295.2352128025579
 20
-101.9638335733702
 30
0.0
 10
295.2388048568994
 20
-101.9675345547709
 30
0.0
  0
LINE
  5
FF
330
1F
100
AcDbEntity
  8
0
  6
Continuous
 62
     7
370
    25
100
AcDbLine
 10
378.2383031261
 20
-26.2731435788
 30
0.0
 11
353.8431191751
 21
-12.1901036499
 31
0.0
  0
LINE
  5
100
330
1F
100
AcDbEntity
  8
0
  6
Continuous
 62
     7
370
    25
100
AcDbLine
 10
299.8475076128
 20
-105.723380787
 30
0.0
 11
324.2426915637
 21
-119.8064207159
 31
0.0
  0
LWPOLYLINE
  5
101
330
1F
100
AcDbEntity
  8
0
  6
Continuous
 62
     7
370
    25
100
AcDbPolyline
 90
       95
 70
   128
 43
0.0
 10
246.8008257637
 20
-37.8117721222
 10
246.8493027604
 20
-36.1094423681
 10
246.9945172406
 20
-34.3587452829
 10
247.2358206412
 20
-32.5674999046
 10
247.5721352425
 20
-30.7437063701
 10
248.001958982
 20
-28.8955101839
 10
248.5233721625
 20
-27.0311658389
 10
249.1340460261
 20
-25.1589999495
 10
249.8312531551
 20
-23.2873740631
 10
250.6118796532
 20
-21.4246473151
 10
251.472439053
 20
-19.5791390955
 10
252.4090878873
 20
-17.7590918919
 10
253.417642855
 20
-15.972634477
 10
254.4935995049
 20
-14.2277456033
 10
255.6321523533
 20
-12.5322183681
 10
256.8282163468
 20
-10.8936254075
 10
258.0764495733
 20
-9.3192850756
 10
259.3712771201
 20
-7.8162287583
 10
260.7069159732
 20
-6.3911694702
 10
262.0774008451
 20
-5.0504718719
 10
263.4766108178
 20
-3.8001238443
 10
264.8982966798
 20
-2.6457097454
 10
266.336108837
 20
-1.5923854686
 10
267.7836256712
 20
-0.6448554159
 10
269.2343822209
 20
0.1926485135
 10
270.6818990551
 20
0.9163858236
 10
272.1197112123
 20
1.5231241281
 10
273.5413970744
 20
2.0101535863
 10
274.940607047
 20
2.3752990065
 10
276.311091919
 20
2.6169295605
 10
277.6467307721
 20
2.7339660677
 10
278.9415583189
 20
2.7258858146
 10
280.1897915454
 20
2.5927248896
 10
281.3858555389
 20
2.3350780217
 10
282.5244083873
 20
1.9540959243
 10
283.6003650371
 20
1.451480156
 10
284.6089200049
 20
0.8294755208
 10
285.5455688392
 20
0.0908600424
 10
286.406128239
 20
-0.7610674432
 10
287.1867547371
 20
-1.722502021
 10
287.8839618661
 20
-2.7891496907
 10
288.4946357297
 20
-3.956246545
 10
289.0160489101
 20
-5.218580046
 10
289.4458726496
 20
-6.5705123059
 10
289.782187251
 20
-8.0060052669
 10
290.0234906515
 20
-9.5186476691
 10
290.1687051318
 20
-11.1016836843
 10
290.2171821285
 20
-12.7480430893
 10
290.1687051318
 20
-14.4503728434
 10
290.0234906515
 20
-16.2010699286
 10
289.782187251
 20
-17.9923153069
 10
289.4458726496
 20
-19.8161088414
 10
289.0160489101
 20
-21.6643050276
 10
288.4946357297
 20
-23.5286493726
 10
287.8839618661
 20
-25.400815262
 10
287.1867547371
 20
-27.2724411484
 10
286.406128239
 20
-29.1351678964
 10
285.5455688392
 20
-30.980676116
 10
284.6089200049
 20
-32.8007233196
 10
283.6003650371
 20
-34.5871807344
 10
282.5244083873
 20
-36.3320696082
 10
281.3858555389
 20
-38.0275968434
 10
280.1897915454
 20
-39.666189804
 10
278.9415583189
 20
-41.2405301359
 10
277.6467307721
 20
-42.7435864532
 10
276.311091919
 20
-44.1686457413
 10
274.940607047
 20
-45.5093433396
 10
273.5413970744
 20
-46.7596913671
 10
272.1197112123
 20
-47.9141054661
 10
270.6818990551
 20
-48.9674297429
 10
269.2343822209
 20
-49.9149597956
 10
267.7836256712
 20
-50.752463725
 10
266.336108837
 20
-51.4762010351
 10
264.8982966798
 20
-52.0829393396
 10
263.4766108178
 20
-52.5699687978
 10
262.0774008451
 20
-52.935114218
 10
260.7069159732
 20
-53.176744772
 10
259.3712771201
 20
-53.2937812792
 10
258.0764495733
 20
-53.2857010261
 10
256.8282163468
 20
-53.1525401011
 10
255.6321523533
 20
-52.8948932331
 10
254.4935995049
 20
-52.5139111358
 10
253.417642855
 20
-52.0112953674
 10
252.4090878873
 20
-51.3892907322
 10
251.472439053
 20
-50.6506752539
 10
250.6118796532
 20
-49.7987477683
 10
249.8312531551
 20
-48.8373131905
 10
249.1340460261
 20
-47.7706655208
 10
248.5233721625
 20
-46.6035686665
 10
248.001958982
 20
-45.3412351655
 10
247.5721352425
 20
-43.9893029056
 10
247.2358206412
 20
-42.5538099446
 10
246.9945172406
 20
-41.0411675424
 10
246.8493027604
 20
-39.4581315272
 10
246.8008257637
 20
-37.8117721222
  0
LWPOLYLINE
  5
102
330
1F
100
AcDbEntity
  8
0
  6
Continuous
 62
     7
370
    25
100
AcDbPolyline
 90
      105
 70
   128
 43
0.0
 10
241.9924996516
 20
-40.5875597024
 10
242.0408775759
 20
-38.7108251972
 10
242.1858348229
 20
-36.7850827303
 10
242.4268424594
 20
-34.817359127
 10
242.7630210746
 20
-32.8148343975
 10
243.1931439893
 20
-30.7848155372
 10
243.7156417315
 20
-28.7347098649
 10
244.3286077637
 20
-26.6719979937
 10
245.0298054393
 20
-24.6042065357
 10
245.8166761639
 20
-22.5388806377
 10
246.6863487318
 20
-20.4835564498
 10
247.635649802
 20
-18.4457336271
 10
248.6611154777
 20
-16.4328479641
 10
249.7590039461
 20
-14.4522442624
 10
250.9253091311
 20
-12.5111495299
 10
252.1557753115
 20
-10.6166466109
 10
253.4459126498
 20
-8.7756483411
 10
254.7910135747
 20
-6.9948723236
 10
256.1861699588
 20
-5.2808164168
 10
257.6262910278
 20
-3.639735025
 10
259.106121936
 20
-2.077616276
 10
260.6202629409
 20
-0.600160172
 10
262.1631891063
 20
0.7872422101
 10
263.7292704618
 20
2.0795283894
 10
265.3127925464
 20
3.2719829539
 10
266.9079772599
 20
4.360254766
 10
268.5090039461
 20
5.34037284
 10
270.1100306323
 20
6.2087608313
 10
271.7052153457
 20
6.9622500863
 10
273.2887374304
 20
7.5980912045
 10
274.8548187859
 20
8.1139640705
 10
276.3977449513
 20
8.5079863202
 10
277.9118859562
 20
8.7787202092
 10
279.3917168644
 20
8.9251778588
 10
280.8318379333
 20
8.946824861
 10
282.2269943174
 20
8.8435822282
 10
283.5720952423
 20
8.6158266816
 10
284.8622325806
 20
8.2643892764
 10
286.0926987611
 20
7.7905523697
 10
287.2590039461
 20
7.1960449409
 10
288.3568924144
 20
6.4830362831
 10
289.3823580902
 20
5.6541280877
 10
290.3316591603
 20
4.7123449508
 10
291.2013317282
 20
3.6611233368
 10
291.9882024529
 20
2.5042990395
 10
292.6894001285
 20
1.2460931852
 10
293.3023661607
 20
-0.1089031693
 10
293.8248639029
 20
-1.5557457893
 10
294.2549868176
 20
-3.0891553029
 10
294.5911654328
 20
-4.7035364652
 10
294.8321730693
 20
-6.3929985744
 10
294.9771303163
 20
-8.1513769663
 10
295.0255082406
 20
-9.9722555091
 10
294.9771303163
 20
-11.8489900143
 10
294.8321730693
 20
-13.7747324812
 10
294.5911654328
 20
-15.7424560844
 10
294.2549868176
 20
-17.744980814
 10
293.8248639029
 20
-19.7749996743
 10
293.3023661607
 20
-21.8251053466
 10
292.6894001285
 20
-23.8878172178
 10
291.9882024529
 20
-25.9556086757
 10
291.2013317282
 20
-28.0209345738
 10
290.3316591603
 20
-30.0762587617
 10
289.3823580902
 20
-32.1140815844
 10
288.3568924144
 20
-34.1269672474
 10
287.2590039461
 20
-36.1075709491
 10
286.0926987611
 20
-38.0486656816
 10
284.8622325806
 20
-39.9431686006
 10
283.5720952423
 20
-41.7841668704
 10
282.2269943174
 20
-43.5649428879
 10
280.8318379333
 20
-45.2789987947
 10
279.3917168644
 20
-46.9200801865
 10
277.9118859562
 20
-48.4821989354
 10
276.3977449513
 20
-49.9596550395
 10
274.8548187859
 20
-51.3470574216
 10
273.2887374304
 20
-52.6393436009
 10
271.7052153457
 20
-53.8317981653
 10
270.1100306323
 20
-54.9200699775
 10
268.5090039461
 20
-55.9001880515
 10
266.9079772599
 20
-56.7685760428
 10
265.3127925464
 20
-57.5220652978
 10
263.7292704618
 20
-58.157906416
 10
262.1631891063
 20
-58.673779282
 10
260.6202629409
 20
-59.0678015317
 10
259.106121936
 20
-59.3385354207
 10
257.6262910278
 20
-59.4849930703
 10
256.1861699588
 20
-59.5066400725
 10
254.7910135747
 20
-59.4033974397
 10
253.4459126498
 20
-59.1756418931
 10
252.1557753115
 20
-58.8242044879
 10
250.9253091311
 20
-58.3503675812
 10
249.7590039461
 20
-57.7558601523
 10
248.6611154777
 20
-57.0428514946
 10
247.635649802
 20
-56.2139432992
 10
246.6863487318
 20
-55.2721601623
 10
245.8166761639
 20
-54.2209385483
 10
245.0298054393
 20
-53.064114251
 10
244.3286077637
 20
-51.8059083967
 10
243.7156417315
 20
-50.4509120422
 10
243.1931439893
 20
-49.0040694222
 10
242.7630210746
 20
-47.4706599086
 10
242.4268424594
 20
-45.8562787463
 10
242.1858348229
 20
-44.1668166371
 10
242.0408775759
 20
-42.4084382452
 10
241.9924996516
 20
-40.5875597024
  0
LWPOLYLINE
  5
103
330
1F
100
AcDbEntity
  8
0
  6
Continuous
 62
     7
370
    25
100
AcDbPolyline
 90
       54
 70
   128
 43
0.0
 10
345.2402362403
 20
-26.2758078512
 10
345.2417600034
 20
-26.2766876439
 10
346.3396484717
 20
-26.9896963016
 10
347.3651141475
 20
-27.818604497
 10
348.3144152176
 20
-28.760387634
 10
349.1840877855
 20
-29.8116092479
 10
349.9709585102
 20
-30.9684335453
 10
350.6721561858
 20
-32.2266393995
 10
351.285122218
 20
-33.581635754
 10
351.8076199602
 20
-35.028478374
 10
352.2377428749
 20
-36.5618878877
 10
352.5739214901
 20
-38.17626905
 10
352.8149291266
 20
-39.8657311591
 10
352.9598863736
 20
-41.6241095511
 10
353.0082642979
 20
-43.4449880938
 10
352.9598863736
 20
-45.321722599
 10
352.8149291266
 20
-47.2474650659
 10
352.5739214901
 20
-49.2151886692
 10
352.2377428749
 20
-51.2177133987
 10
351.8076199602
 20
-53.247732259
 10
351.285122218
 20
-55.2978379314
 10
350.6721561858
 20
-57.3605498025
 10
349.9709585102
 20
-59.4283412605
 10
349.1840877855
 20
-61.4936671585
 10
348.3144152176
 20
-63.5489913464
 10
347.3651141475
 20
-65.5868141691
 10
346.3396484717
 20
-67.5996998321
 10
345.2417600034
 20
-69.5803035339
 10
344.0754548184
 20
-71.5213982663
 10
342.8449886379
 20
-73.4159011853
 10
341.5548512996
 20
-75.2568994551
 10
340.2097503747
 20
-77.0376754727
 10
338.8145939906
 20
-78.7517313794
 10
337.3744729217
 20
-80.3928127713
 10
335.8946420135
 20
-81.9549315202
 10
334.3805010086
 20
-83.4323876242
 10
332.8375748432
 20
-84.8197900063
 10
331.2714934877
 20
-86.1120761857
 10
329.687971403
 20
-87.3045307501
 10
328.0927866896
 20
-88.3928025622
 10
326.4917600034
 20
-89.3729206362
 10
324.8907333172
 20
-90.2413086275
 10
323.2955486037
 20
-90.9947978825
 10
321.7120265191
 20
-91.6306390007
 10
320.1459451636
 20
-92.1465118667
 10
318.6030189982
 20
-92.5405341165
 10
317.0888779933
 20
-92.8112680054
 10
315.6090470851
 20
-92.9577256551
 10
314.1689260161
 20
-92.9793726572
 10
312.773769632
 20
-92.8761300244
 10
311.4286687071
 20
-92.6483744778
 10
310.1385313688
 20
-92.2969370726
 10
308.9080651884
 20
-91.8231001659
 10
307.7432837665
 20
-91.2294725298
  0
ARC
  5
104
330
1F
100
AcDbEntity
  8
0
  6
Continuous
 62
     7
370
    25
100
AcDbCircle
 10
344.6238999669
 20
-28.1613095479
 30
0.0
 40
18.43562856598532
100
AcDbArc
 50
40.7286094331
 51
78.964897565
  0
ARC
  5
105
330
1F
100
AcDbEntity
  8
0
  6
Continuous
 62
     7
370
    25
100
AcDbCircle
 10
309.0622186556
 20
-89.7652903445
 30
0.0
 40
18.42228068966042
100
AcDbArc
 50
221.7512476281
 51
259.2472528451
  0
LWPOLYLINE
  5
106
330
1F
100
AcDbEntity
  8
0
  6
Continuous
 62
     7
370
    25
100
AcDbPolyline
 90
       64
 70
   128
 43
0.0
 10
378.2383031261
 20
-26.2731435788
 10
378.9158156644
 20
-26.6844021504
 10
380.2127400921
 20
-27.5933627602
 10
381.4352931882
 20
-28.6189836768
 10
382.5803366764
 20
-29.758632146
 10
383.6449312465
 20
-31.0093827065
 10
384.6263440996
 20
-32.3680246996
 10
385.5220559629
 20
-33.8310705107
 10
386.3297675568
 20
-35.3947645222
 10
387.0474054974
 20
-37.0550927541
 10
387.6731276183
 20
-38.8077931676
 10
388.2053276998
 20
-40.6483666058
 10
388.642639592
 20
-42.5720883431
 10
388.9839407214
 20
-44.5740202135
 10
389.228354973
 20
-46.6490232865
 10
389.3752549389
 20
-48.791771059
 10
389.424263529
 20
-50.9967631282
 10
389.3752549389
 20
-53.258339311
 10
389.228354973
 20
-55.5706941739
 10
388.9839407214
 20
-57.9278919351
 10
388.642639592
 20
-60.3238817018
 10
388.2053276998
 20
-62.7525130025
 10
387.6731276183
 20
-65.2075515756
 10
387.0474054974
 20
-67.6826953722
 10
386.3297675568
 20
-70.1715907337
 10
385.5220559629
 20
-72.6678487015
 10
384.6263440996
 20
-75.165061417
 10
383.6449312465
 20
-77.6568185712
 10
382.5803366764
 20
-80.1367238591
 10
381.4352931882
 20
-82.5984113994
 10
380.2127400921
 20
-85.0355620755
 10
378.9158156644
 20
-87.4419197566
 10
377.5478490915
 20
-89.811307357
 10
376.1123519239
 20
-92.1376426927
 10
374.6130090624
 20
-94.4149540943
 10
373.0536692985
 20
-96.637395736
 10
371.438335435
 20
-98.7992626422
 10
369.7711540109
 20
-100.8950053313
 10
368.0564046568
 20
-102.9192440621
 10
366.2984891099
 20
-104.8667826426
 10
364.501919914
 20
-106.7326217693
 10
362.6713088367
 20
-108.51197186
 10
360.8113550301
 20
-110.2002653484
 10
358.9268329692
 20
-111.7931684093
 10
357.0225801949
 20
-113.2865920836
 10
355.1034848969
 20
-114.676702774
 10
353.1744733653
 20
-115.9599320862
 10
351.2404973449
 20
-117.1329859892
 10
349.3065213246
 20
-118.1928532703
 10
347.3775097929
 20
-119.1368132654
 10
345.4584144949
 20
-119.9624428427
 10
343.5541617206
 20
-120.6676226231
 10
341.6696396597
 20
-121.2505424199
 10
339.8096858532
 20
-121.7097058867
 10
337.9790747758
 20
-122.0439343572
 10
336.1825055799
 20
-122.2523698718
 10
334.424590033
 20
-122.3344773795
 10
332.7098406789
 20
-122.2900461116
 10
331.0426592548
 20
-122.1191901224
 10
329.4273253913
 20
-121.8223479969
 10
327.8679856274
 20
-121.4002817244
 10
326.3686427659
 20
-120.8540747432
 10
324.9331455984
 20
-120.1851291586
 10
324.2426915637
 20
-119.8064207159
  0
LINE
  5
107
330
1F
100
AcDbEntity
  8
0
  6
Continuous
 62
     7
370
    25
100
AcDbLine
 10
382.1587216667
 20
-88.6891277764
 30
0.0
 11
379.1781895543
 21
-86.9685032124
 31
0.0
  0
LINE
  5
108
330
1F
100
AcDbEntity
  8
0
  6
Continuous
 62
     7
370
    25
100
AcDbLine
 10
382.1587216667
 20
-88.6891277764
 30
0.0
 11
366.2842138003
 21
-108.4368646461
 31
0.0
  0
LINE
  5
109
330
1F
100
AcDbEntity
  8
0
  6
Continuous
 62
     7
370
    25
100
AcDbLine
 10
364.0729709621
 20
-107.1603413272
 30
0.0
 11
366.2842138003
 21
-108.4368646461
 31
0.0
  0
LINE
  5
10A
330
1F
100
AcDbEntity
  8
0
  6
Continuous
 62
     7
370
    25
100
AcDbLine
 10
386.2682497528
 20
-70.3717191527
 30
0.0
 11
388.7171567478
 21
-71.7854430689
 31
0.0
  0
ARC
  5
10B
330
1F
100
AcDbEntity
  8
0
  6
Continuous
 62
     7
370
    25
100
AcDbCircle
 10
321.7444181742
 20
-55.5249324645
 30
0.0
 40
68.91844395492014
100
AcDbArc
 50
331.2355876914
 51
346.3530525683
  0
LINE
  5
10C
330
1F
100
AcDbEntity
  8
0
  6
Continuous
 62
     7
370
    25
100
AcDbLine
 10
388.7171567478
 20
-59.8513310189
 30
0.0
 11
388.7171567478
 21
-71.7854430689
 31
0.0
  0
LINE
  5
10D
330
1F
100
AcDbEntity
  8
0
  6
Continuous
 62
     7
370
    25
100
AcDbLine
 10
353.167343638
 20
-116.0090726118
 30
0.0
 11
353.1305495108
 21
-115.9878318143
 31
0.0
  0
ARC
  5
10E
330
1F
100
AcDbEntity
  8
0
  6
Continuous
 62
     7
370
    25
100
AcDbCircle
 10
339.936869416
 20
-77.9438580765
 30
0.0
 40
40.29895787434194
100
AcDbArc
 50
289.1661160765
 51
310.8285073908
  0
LINE
  5
10F
330
1F
100
AcDbEntity
  8
0
  6
Continuous
 62
     7
370
    25
100
AcDbLine
 10
353.167343638
 20
-116.0090726118
 30
0.0
 11
353.1057403023
 21
-116.0035643453
 31
0.0
  0
LINE
  5
110
330
1F
100
AcDbEntity
  8
0
  6
Continuous
 62
     1
370
    25
100
AcDbLine
 10
288.6615472099
 20
-80.5915571817
 30
0.0
 11
288.6629493816
 21
-80.2146299469
 31
0.0
  0
LWPOLYLINE
  5
111
330
1F
100
AcDbEntity
  8
0
  6
Continuous
 62
     1
370
    25
100
AcDbPolyline
 90
       96
 70
   128
 43
0.0
 10
326.1599018555
 20
-15.2609652684
 10
326.4917600034
 20
-15.0677067546
 10
328.4078288384
 20
-14.0176530594
 10
330.3189791521
 20
-13.0824334347
 10
332.2203050492
 20
-12.2644485756
 10
334.1069258533
 20
-11.5657982377
 10
335.9739986359
 20
-10.9882758464
 10
337.816730648
 20
-10.5333638932
 10
339.6303916228
 20
-10.2022301308
 10
341.4103259187
 20
-9.9957245746
 10
343.1519644698
 20
-9.9143773216
 10
344.850836515
 20
-9.9583971889
 10
346.5025810741
 20
-10.1276711782
 10
348.1029581426
 20
-10.4217647655
 10
349.6478595753
 20
-10.8399230169
 10
351.1333196326
 20
-11.3810725261
 10
352.5555251597
 20
-12.0438241701
 10
353.9108253754
 20
-12.826476675
 10
355.1957412436
 20
-13.7270209829
 10
356.4069744037
 20
-14.7431454095
 10
357.5414156374
 20
-15.872241578
 10
358.5961528504
 20
-17.1114111148
 10
359.5684785474
 20
-18.4574730894
 10
360.4558967823
 20
-19.9069721801
 10
361.2561295652
 20
-21.4561875434
 10
361.96712271
 20
-23.1011423657
 10
362.5870511076
 20
-24.8376140716
 10
363.1143234106
 20
-26.6611451632
 10
363.5475861185
 20
-28.5670546622
 10
363.8857270523
 20
-30.5504501264
 10
364.127878209
 20
-32.6062402079
 10
364.27341799
 20
-34.7291477233
 10
364.3219727969
 20
-36.9137231992
 10
364.27341799
 20
-39.1543588619
 10
364.127878209
 20
-41.4453030316
 10
363.8857270523
 20
-43.7806748876
 10
363.5475861185
 20
-46.1544795638
 10
363.1143234106
 20
-48.5606235377
 10
362.5870511076
 20
-50.9929302721
 10
361.96712271
 20
-53.4451560706
 10
361.2561295652
 20
-55.9110061047
 10
360.4558967823
 20
-58.3841505728
 10
359.5684785474
 20
-60.8582409484
 10
358.5961528504
 20
-63.3269262771
 10
357.5414156374
 20
-65.7838694789
 10
356.4069744037
 20
-68.2227636161
 10
355.1957412436
 20
-70.6373480822
 10
353.9108253754
 20
-73.0214246737
 10
352.5555251597
 20
-75.3688735
 10
351.1333196326
 20
-77.6736686937
 10
349.6478595753
 20
-79.9298938786
 10
348.1029581426
 20
-82.131757357
 10
346.5025810741
 20
-84.273606977
 10
344.850836515
 20
-86.3499446412
 10
343.1519644698
 20
-88.3554404208
 10
341.4103259187
 20
-90.2849462367
 10
339.6303916228
 20
-92.1335090752
 10
337.816730648
 20
-93.896383702
 10
335.9739986359
 20
-95.5690448433
 10
334.1069258533
 20
-97.1471988019
 10
332.2203050492
 20
-98.6267944791
 10
330.3189791521
 20
-100.0040337742
 10
328.4078288384
 20
-101.2753813336
 10
326.4917600034
 20
-102.4375736264
 10
324.5756911684
 20
-103.4876273215
 10
322.6645408546
 20
-104.4228469463
 10
320.7632149575
 20
-105.2408318053
 10
318.8765941534
 20
-105.9394821432
 10
317.0095213708
 20
-106.5170045346
 10
315.1667893588
 20
-106.9719164877
 10
313.353128384
 20
-107.3030502502
 10
311.5731940881
 20
-107.5095558063
 10
309.8315555369
 20
-107.5909030594
 10
308.1326834917
 20
-107.5468831921
 10
306.4809389326
 20
-107.3776092028
 10
304.8805618642
 20
-107.0835156154
 10
303.3356604314
 20
-106.665357364
 10
301.8502003742
 20
-106.1242078548
 10
300.4279948471
 20
-105.4614562108
 10
299.0726946313
 20
-104.678803706
 10
297.7877787631
 20
-103.7782593981
 10
296.5765456031
 20
-102.7621349715
 10
295.4421043694
 20
-101.6330388029
 10
294.3873671564
 20
-100.3938692661
 10
293.4150414594
 20
-99.0478072915
 10
292.5276232245
 20
-97.5983082009
 10
291.7273904416
 20
-96.0490928376
 10
291.0163972967
 20
-94.4041380153
 10
290.3964688992
 20
-92.6676663093
 10
289.8691965962
 20
-90.8441352178
 10
289.4359338882
 20
-88.9382257188
 10
289.0977929544
 20
-86.9548302546
 10
288.8556417978
 20
-84.899040173
 10
288.7101020167
 20
-82.7761326577
 10
288.6615472099
 20
-80.5915571817
 10
288.6615472099
 20
-80.5915571817
  0
LWPOLYLINE
  5
112
330
1F
100
AcDbEntity
  8
0
  6
Continuous
 62
     1
370
    25
100
AcDbPolyline
 90
       56
 70
   128
 43
0.0
 10
358.594578397
 20
-16.1324881249
 10
359.2497472956
 20
-16.9263427776
 10
360.2311601487
 20
-18.2849847706
 10
361.1268720119
 20
-19.7480305818
 10
361.9345836059
 20
-21.3117245933
 10
362.6522215465
 20
-22.9720528252
 10
363.2779436674
 20
-24.7247532386
 10
363.8101437489
 20
-26.5653266768
 10
364.2474556411
 20
-28.4890484142
 10
364.5887567705
 20
-30.4909802846
 10
364.8331710221
 20
-32.5659833575
 10
364.980070988
 20
-34.70873113
 10
365.029079578
 20
-36.9137231992
 10
364.980070988
 20
-39.1752993821
 10
364.8331710221
 20
-41.487654245
 10
364.5887567705
 20
-43.8448520062
 10
364.2474556411
 20
-46.2408417728
 10
363.8101437489
 20
-48.6694730736
 10
363.2779436674
 20
-51.1245116466
 10
362.6522215465
 20
-53.5996554432
 10
361.9345836059
 20
-56.0885508048
 10
361.1268720119
 20
-58.5848087725
 10
360.2311601487
 20
-61.0820214881
 10
359.2497472956
 20
-63.5737786423
 10
358.1851527255
 20
-66.0536839302
 10
357.0401092372
 20
-68.5153714705
 10
355.8175561411
 20
-70.9525221466
 10
354.5206317134
 20
-73.3588798276
 10
353.1526651405
 20
-75.728267428
 10
351.717167973
 20
-78.0546027637
 10
350.2178251114
 20
-80.3319141653
 10
348.6584853475
 20
-82.5543558071
 10
347.0431514841
 20
-84.7162227132
 10
345.3759700599
 20
-86.8119654024
 10
343.6612207059
 20
-88.8362041331
 10
341.9033051589
 20
-90.7837427136
 10
340.1067359631
 20
-92.6495818404
 10
338.2761248857
 20
-94.428931931
 10
336.4161710792
 20
-96.1172254194
 10
334.5316490182
 20
-97.7101284804
 10
332.627396244
 20
-99.2035521547
 10
330.708300946
 20
-100.593662845
 10
328.7792894143
 20
-101.8768921573
 10
326.845313394
 20
-103.0499460603
 10
324.9113373736
 20
-104.1098133413
 10
322.982325842
 20
-105.0537733364
 10
321.063230544
 20
-105.8794029138
 10
319.1589777697
 20
-106.5845826941
 10
317.2744557088
 20
-107.167502491
 10
315.4145019022
 20
-107.6266659577
 10
313.5838908248
 20
-107.9608944282
 10
311.787321629
 20
-108.1693299428
 10
310.0294060821
 20
-108.2514374506
 10
308.314656728
 20
-108.2070061826
 10
306.6474753039
 20
-108.0361501935
 10
305.625152723
 20
-107.8641025592
  0
LINE
  5
113
330
1F
100
AcDbEntity
  8
0
  6
Continuous
 62
     7
370
    25
100
AcDbLine
 10
85.8323425481
 20
-24.8060492818
 30
0.0
 11
85.8323425481
 21
-59.3060492818
 31
0.0
  0
LINE
  5
114
330
1F
100
AcDbEntity
  8
0
  6
Continuous
 62
     7
370
    25
100
AcDbLine
 10
193.8323425481
 20
-59.3060492818
 30
0.0
 11
193.8323425481
 21
-24.8060492818
 31
0.0
  0
ARC
  5
115
330
1F
100
AcDbEntity
  8
0
  6
Continuous
 62
     7
370
    25
100
AcDbCircle
 10
86.3323425481
 20
-59.3060492818
 30
0.0
 40
0.5
100
AcDbArc
 50
180.0
 51
270.0
  0
ARC
  5
116
330
1F
100
AcDbEntity
  8
0
  6
Continuous
 62
     7
370
    25
100
AcDbCircle
 10
193.3323425481
 20
-59.3060492818
 30
0.0
 40
0.5
100
AcDbArc
 50
270.0
 51
0.0
  0
LINE
  5
117
330
1F
100
AcDbEntity
  8
0
  6
Continuous
 62
     7
370
    25
100
AcDbLine
 10
102.3323425481
 20
-59.8060492818
 30
0.0
 11
102.3323425481
 21
-141.8060492818
 31
0.0
  0
LINE
  5
118
330
1F
100
AcDbEntity
  8
0
  6
Continuous
 62
     7
370
    25
100
AcDbLine
 10
177.3323425481
 20
-141.8060492818
 30
0.0
 11
177.3323425481
 21
-59.8060492818
 31
0.0
  0
LINE
  5
119
330
1F
100
AcDbEntity
  8
0
  6
Continuous
 62
     7
370
    25
100
AcDbLine
 10
85.8323425481
 20
-24.8060492818
 30
0.0
 11
193.8323425481
 21
-24.8060492818
 31
0.0
  0
LINE
  5
11A
330
1F
100
AcDbEntity
  8
0
  6
Continuous
 62
     7
370
    25
100
AcDbLine
 10
86.3323425481
 20
-59.8060492818
 30
0.0
 11
193.332342547
 21
-59.8060492818
 31
0.0
  0
LINE
  5
11B
330
1F
100
AcDbEntity
  8
0
  6
Continuous
 62
     7
370
    25
100
AcDbLine
 10
139.8323425481
 20
-23.8060492818
 30
0.0
 11
130.5573147084
 21
-23.8060492818
 31
0.0
  0
LINE
  5
11C
330
1F
100
AcDbEntity
  8
0
  6
Continuous
 62
     7
370
    25
100
AcDbLine
 10
139.8323425481
 20
-24.8060492818
 30
0.0
 11
139.8323425481
 21
-23.8060492818
 31
0.0
  0
LINE
  5
11D
330
1F
100
AcDbEntity
  8
0
  6
Continuous
 62
     7
370
    25
100
AcDbLine
 10
98.8323425481
 20
-24.8060492818
 30
0.0
 11
98.8323425481
 21
-23.8060492818
 31
0.0
  0
LINE
  5
11E
330
1F
100
AcDbEntity
  8
0
  6
Continuous
 62
     7
370
    25
100
AcDbLine
 10
108.1073703878
 20
-23.8060492818
 30
0.0
 11
98.8323425481
 21
-23.8060492818
 31
0.0
  0
LINE
  5
11F
330
1F
100
AcDbEntity
  8
0
  6
Continuous
 62
     7
370
    25
100
AcDbLine
 10
108.1073703878
 20
-12.8060492818
 30
0.0
 11
108.1073703878
 21
-23.8060492818
 31
0.0
  0
LINE
  5
120
330
1F
100
AcDbEntity
  8
0
  6
Continuous
 62
     7
370
    25
100
AcDbLine
 10
108.1073703878
 20
-12.8060492818
 30
0.0
 11
130.5573147084
 21
-12.8060492818
 31
0.0
  0
LINE
  5
121
330
1F
100
AcDbEntity
  8
0
  6
Continuous
 62
     7
370
    25
100
AcDbLine
 10
130.5573147084
 20
-23.8060492818
 30
0.0
 11
130.5573147084
 21
-12.8060492818
 31
0.0
  0
LINE
  5
122
330
1F
100
AcDbEntity
  8
0
  6
Continuous
 62
     7
370
    25
100
AcDbLine
 10
180.8323425481
 20
-23.8060492818
 30
0.0
 11
171.5573147084
 21
-23.8060492818
 31
0.0
  0
LINE
  5
123
330
1F
100
AcDbEntity
  8
0
  6
Continuous
 62
     7
370
    25
100
AcDbLine
 10
180.8323425481
 20
-24.8060492818
 30
0.0
 11
180.8323425481
 21
-23.8060492818
 31
0.0
  0
LINE
  5
124
330
1F
100
AcDbEntity
  8
0
  6
Continuous
 62
     7
370
    25
100
AcDbLine
 10
149.1073703878
 20
-23.8060492818
 30
0.0
 11
139.8323425481
 21
-23.8060492818
 31
0.0
  0
LINE
  5
125
330
1F
100
AcDbEntity
  8
0
  6
Continuous
 62
     7
370
    25
100
AcDbLine
 10
149.1073703878
 20
-12.8060492818
 30
0.0
 11
149.1073703878
 21
-23.8060492818
 31
0.0
  0
LINE
  5
126
330
1F
100
AcDbEntity
  8
0
  6
Continuous
 62
     7
370
    25
100
AcDbLine
 10
149.1073703878
 20
-12.8060492818
 30
0.0
 11
171.5573147084
 21
-12.8060492818
 31
0.0
  0
LINE
  5
127
330
1F
100
AcDbEntity
  8
0
  6
Continuous
 62
     7
370
    25
100
AcDbLine
 10
171.5573147084
 20
-23.8060492818
 30
0.0
 11
171.5573147084
 21
-12.8060492818
 31
0.0
  0
LINE
  5
128
330
1F
100
AcDbEntity
  8
0
  6
Continuous
 62
     7
370
    25
100
AcDbLine
 10
130.5573147084
 20
-12.8060492818
 30
0.0
 11
149.1073703878
 21
-12.8060492818
 31
0.0
  0
LINE
  5
129
330
1F
100
AcDbEntity
  8
0
  6
Continuous
 62
     7
370
    25
100
AcDbLine
 10
102.3323425481
 20
-141.8060492818
 30
0.0
 11
177.3323425481
 21
-141.8060492818
 31
0.0
  0
LINE
  5
12A
330
1F
100
AcDbEntity
  8
0
  6
Continuous
 62
     7
370
    25
100
AcDbLine
 10
98.8323425481
 20
-23.8060492818
 30
0.0
 11
98.8323425481
 21
-12.8060492818
 31
0.0
  0
LINE
  5
12B
330
1F
100
AcDbEntity
  8
0
  6
Continuous
 62
     7
370
    25
100
AcDbLine
 10
98.8323425481
 20
-12.8060492818
 30
0.0
 11
108.1073703878
 21
-12.8060492818
 31
0.0
  0
LINE
  5
12C
330
1F
100
AcDbEntity
  8
0
  6
Continuous
 62
     7
370
    25
100
AcDbLine
 10
180.8323425481
 20
-12.8060492818
 30
0.0
 11
180.8323425481
 21
-23.8060492818
 31
0.0
  0
LINE
  5
12D
330
1F
100
AcDbEntity
  8
0
  6
Continuous
 62
     7
370
    25
100
AcDbLine
 10
171.5573147084
 20
-12.8060492818
 30
0.0
 11
180.8323425481
 21
-12.8060492818
 31
0.0
  0
LINE
  5
12E
330
1F
100
AcDbEntity
  8
0
  6
Continuous
 62
     1
370
    25
100
AcDbLine
 10
85.8323425481
 20
-59.3060492818
 30
0.0
 11
193.8323425481
 21
-59.3060492818
 31
0.0
  0
ENDSEC
  0
SECTION
  2
OBJECTS
  0
DICTIONARY
  5
C
330
0
100
AcDbDictionary
281
     1
  3
ACAD_GROUP
350
D
  3
ACAD_LAYOUT
350
1A
  3
ACAD_MLINESTYLE
350
17
  3
ACAD_PLOTSETTINGS
350
19
  3
ACAD_PLOTSTYLENAME
350
E
  3
ACAD_SCALELIST
350
47
  3
DWGPROPS
350
12F
  0
DICTIONARY
  5
D
102
{ACAD_REACTORS
330
C
102
}
330
C
100
AcDbDictionary
281
     1
  0
DICTIONARY
  5
1A
102
{ACAD_REACTORS
330
C
102
}
330
C
100
AcDbDictionary
281
     1
  3
Layout1
350
1E
  3
Layout2
350
26
  3
Model
350
22
  0
DICTIONARY
  5
17
102
{ACAD_REACTORS
330
C
102
}
330
C
100
AcDbDictionary
281
     1
  3
Standard
350
18
  0
DICTIONARY
  5
19
102
{ACAD_REACTORS
330
C
102
}
330
C
100
AcDbDictionary
281
     1
  0
ACDBDICTIONARYWDFLT
  5
E
102
{ACAD_REACTORS
330
C
102
}
330
C
100
AcDbDictionary
281
     1
  3
Normal
350
F
100
AcDbDictionaryWithDefault
340
F
  0
DICTIONARY
  5
47
102
{ACAD_REACTORS
330
C
102
}
330
C
100
AcDbDictionary
281
     1
  3
A0
350
48
  3
A1
350
49
  3
A2
350
4A
  3
A3
350
4B
  3
A4
350
4C
  3
A5
350
4D
  3
A6
350
4E
  3
A7
350
4F
  3
A8
350
50
  3
A9
350
51
  3
B0
350
52
  3
B1
350
53
  3
B2
350
54
  3
B3
350
55
  3
B4
350
56
  3
B5
350
57
  3
B6
350
58
  3
B7
350
59
  3
B8
350
5A
  3
B9
350
5B
  3
C0
350
5C
  3
C1
350
5D
  3
C2
350
5E
  3
C3
350
5F
  3
C4
350
60
  3
C5
350
61
  3
C6
350
62
  3
C7
350
63
  3
C8
350
64
  3
C9
350
65
  3
D0
350
66
  3
D1
350
67
  3
D2
350
68
  0
XRECORD
  5
12F
102
{ACAD_REACTORS
330
C
102
}
330
C
100
AcDbXrecord
280
     1
  1
DWGPROPS COOKIE
  2

  3

  4

  6

  7

  8
b.kav
  9

300
=
301
=
302
=
303
=
304
=
305
=
306
=
307
=
308
=
309
=
 40
0.0
 41
2459935.584517361
 42
2459935.584517593
  1

 90
        0
  0
LAYOUT
  5
1E
102
{ACAD_REACTORS
330
1A
102
}
330
1A
100
AcDbPlotSettings
  1

  2
none_device
  4

  6

 40
0.0
 41
0.0
 42
0.0
 43
0.0
 44
0.0
 45
0.0
 46
0.0
 47
0.0
 48
0.0
 49
0.0
140
0.0
141
0.0
142
1.0
143
1.0
 70
   688
 72
     1
 73
     0
 74
     5
  7

 75
    16
147
1.0
148
0.0
149
0.0
100
AcDbLayout
  1
Layout1
 70
     1
 71
     1
 10
0.0
 20
0.0
 11
420.0
 21
297.0
 12
0.0
 22
0.0
 32
0.0
 14
1.0000000000E+20
 24
1.0000000000E+20
 34
1.0000000000E+20
 15
-1.0000000000E+20
 25
-1.0000000000E+20
 35
-1.0000000000E+20
146
0.0
 13
0.0
 23
0.0
 33
0.0
 16
1.0
 26
0.0
 36
0.0
 17
0.0
 27
1.0
 37
0.0
 76
     0
330
1B
  0
LAYOUT
  5
26
102
{ACAD_REACTORS
330
1A
102
}
330
1A
100
AcDbPlotSettings
  1

  2
none_device
  4

  6

 40
0.0
 41
0.0
 42
0.0
 43
0.0
 44
0.0
 45
0.0
 46
0.0
 47
0.0
 48
0.0
 49
0.0
140
0.0
141
0.0
142
1.0
143
1.0
 70
   688
 72
     1
 73
     0
 74
     5
  7

 75
    16
147
1.0
148
0.0
149
0.0
100
AcDbLayout
  1
Layout2
 70
     1
 71
     2
 10
0.0
 20
0.0
 11
0.0
 21
0.0
 12
0.0
 22
0.0
 32
0.0
 14
0.0
 24
0.0
 34
0.0
 15
0.0
 25
0.0
 35
0.0
146
0.0
 13
0.0
 23
0.0
 33
0.0
 16
1.0
 26
0.0
 36
0.0
 17
0.0
 27
1.0
 37
0.0
 76
     0
330
23
  0
LAYOUT
  5
22
102
{ACAD_REACTORS
330
1A
102
}
330
1A
100
AcDbPlotSettings
  1

  2
none_device
  4
Letter_(8.50_x_11.00_Inches)
  6

 40
6.35
 41
6.35
 42
6.35000508
 43
6.35000508
 44
215.9
 45
279.4
 46
0.0
 47
0.0
 48
0.0
 49
0.0
140
0.0
141
0.0
142
1.0
143
1.0
 70
  1712
 72
     1
 73
     0
 74
     0
  7

 75
     0
147
1.0
148
0.0
149
0.0
100
AcDbLayout
  1
Model
 70
     1
 71
     0
 10
0.0
 20
0.0
 11
279.4
 21
215.9
 12
0.0
 22
0.0
 32
0.0
 14
0.0
 24
0.0
 34
0.0
 15
279.4
 25
215.9
 35
0.0
146
0.0
 13
0.0
 23
0.0
 33
0.0
 16
1.0
 26
0.0
 36
0.0
 17
0.0
 27
1.0
 37
0.0
 76
     0
330
1F
331
29
  0
MLINESTYLE
  5
18
102
{ACAD_REACTORS
330
17
102
}
330
17
100
AcDbMlineStyle
  2
Standard
 70
     0
  3

 62
   256
 51
90.0
 52
90.0
 71
     2
 49
0.5
 62
   256
  6
BYLAYER
 49
-0.5
 62
   256
  6
BYLAYER
  0
ACDBPLACEHOLDER
  5
F
102
{ACAD_REACTORS
330
E
102
}
330
E
  0
SCALE
  5
48
102
{ACAD_REACTORS
330
47
102
}
330
47
100
AcDbScale
 70
     0
300
1:1
140
1.0
141
1.0
290
     1
  0
SCALE
  5
49
102
{ACAD_REACTORS
330
47
102
}
330
47
100
AcDbScale
 70
     0
300
1:2
140
1.0
141
2.0
290
     0
  0
SCALE
  5
4A
102
{ACAD_REACTORS
330
47
102
}
330
47
100
AcDbScale
 70
     0
300
1:4
140
1.0
141
4.0
290
     0
  0
SCALE
  5
4B
102
{ACAD_REACTORS
330
47
102
}
330
47
100
AcDbScale
 70
     0
300
1:5
140
1.0
141
5.0
290
     0
  0
SCALE
  5
4C
102
{ACAD_REACTORS
330
47
102
}
330
47
100
AcDbScale
 70
     0
300
1:8
140
1.0
141
8.0
290
     0
  0
SCALE
  5
4D
102
{ACAD_REACTORS
330
47
102
}
330
47
100
AcDbScale
 70
     0
300
1:10
140
1.0
141
10.0
290
     0
  0
SCALE
  5
4E
102
{ACAD_REACTORS
330
47
102
}
330
47
100
AcDbScale
 70
     0
300
1:16
140
1.0
141
16.0
290
     0
  0
SCALE
  5
4F
102
{ACAD_REACTORS
330
47
102
}
330
47
100
AcDbScale
 70
     0
300
1:20
140
1.0
141
20.0
290
     0
  0
SCALE
  5
50
102
{ACAD_REACTORS
330
47
102
}
330
47
100
AcDbScale
 70
     0
300
1:30
140
1.0
141
30.0
290
     0
  0
SCALE
  5
51
102
{ACAD_REACTORS
330
47
102
}
330
47
100
AcDbScale
 70
     0
300
1:40
140
1.0
141
40.0
290
     0
  0
SCALE
  5
52
102
{ACAD_REACTORS
330
47
102
}
330
47
100
AcDbScale
 70
     0
300
1:50
140
1.0
141
50.0
290
     0
  0
SCALE
  5
53
102
{ACAD_REACTORS
330
47
102
}
330
47
100
AcDbScale
 70
     0
300
1:100
140
1.0
141
100.0
290
     0
  0
SCALE
  5
54
102
{ACAD_REACTORS
330
47
102
}
330
47
100
AcDbScale
 70
     0
300
2:1
140
2.0
141
1.0
290
     0
  0
SCALE
  5
55
102
{ACAD_REACTORS
330
47
102
}
330
47
100
AcDbScale
 70
     0
300
4:1
140
4.0
141
1.0
290
     0
  0
SCALE
  5
56
102
{ACAD_REACTORS
330
47
102
}
330
47
100
AcDbScale
 70
     0
300
8:1
140
8.0
141
1.0
290
     0
  0
SCALE
  5
57
102
{ACAD_REACTORS
330
47
102
}
330
47
100
AcDbScale
 70
     0
300
10:1
140
10.0
141
1.0
290
     0
  0
SCALE
  5
58
102
{ACAD_REACTORS
330
47
102
}
330
47
100
AcDbScale
 70
     0
300
100:1
140
100.0
141
1.0
290
     0
  0
SCALE
  5
59
102
{ACAD_REACTORS
330
47
102
}
330
47
100
AcDbScale
 70
     0
300
1/128" = 1'-0"
140
0.0078125
141
12.0
290
     0
  0
SCALE
  5
5A
102
{ACAD_REACTORS
330
47
102
}
330
47
100
AcDbScale
 70
     0
300
1/64" = 1'-0"
140
0.015625
141
12.0
290
     0
  0
SCALE
  5
5B
102
{ACAD_REACTORS
330
47
102
}
330
47
100
AcDbScale
 70
     0
300
1/32" = 1'-0"
140
0.03125
141
12.0
290
     0
  0
SCALE
  5
5C
102
{ACAD_REACTORS
330
47
102
}
330
47
100
AcDbScale
 70
     0
300
1/16" = 1'-0"
140
0.0625
141
12.0
290
     0
  0
SCALE
  5
5D
102
{ACAD_REACTORS
330
47
102
}
330
47
100
AcDbScale
 70
     0
300
3/32" = 1'-0"
140
0.09375
141
12.0
290
     0
  0
SCALE
  5
5E
102
{ACAD_REACTORS
330
47
102
}
330
47
100
AcDbScale
 70
     0
300
1/8" = 1'-0"
140
0.125
141
12.0
290
     0
  0
SCALE
  5
5F
102
{ACAD_REACTORS
330
47
102
}
330
47
100
AcDbScale
 70
     0
300
3/16" = 1'-0"
140
0.1875
141
12.0
290
     0
  0
SCALE
  5
60
102
{ACAD_REACTORS
330
47
102
}
330
47
100
AcDbScale
 70
     0
300
1/4" = 1'-0"
140
0.25
141
12.0
290
     0
  0
SCALE
  5
61
102
{ACAD_REACTORS
330
47
102
}
330
47
100
AcDbScale
 70
     0
300
3/8" = 1'-0"
140
0.375
141
12.0
290
     0
  0
SCALE
  5
62
102
{ACAD_REACTORS
330
47
102
}
330
47
100
AcDbScale
 70
     0
300
1/2" = 1'-0"
140
0.5
141
12.0
290
     0
  0
SCALE
  5
63
102
{ACAD_REACTORS
330
47
102
}
330
47
100
AcDbScale
 70
     0
300
3/4" = 1'-0"
140
0.75
141
12.0
290
     0
  0
SCALE
  5
64
102
{ACAD_REACTORS
330
47
102
}
330
47
100
AcDbScale
 70
     0
300
1" = 1'-0"
140
1.0
141
12.0
290
     0
  0
SCALE
  5
65
102
{ACAD_REACTORS
330
47
102
}
330
47
100
AcDbScale
 70
     0
300
1-1/2" = 1'-0"
140
1.5
141
12.0
290
     0
  0
SCALE
  5
66
102
{ACAD_REACTORS
330
47
102
}
330
47
100
AcDbScale
 70
     0
300
3" = 1'-0"
140
3.0
141
12.0
290
     0
  0
SCALE
  5
67
102
{ACAD_REACTORS
330
47
102
}
330
47
100
AcDbScale
 70
     0
300
6" = 1'-0"
140
6.0
141
12.0
290
     0
  0
SCALE
  5
68
102
{ACAD_REACTORS
330
47
102
}
330
47
100
AcDbScale
 70
     0
300
1'-0" = 1'-0"
140
12.0
141
12.0
290
     0
  0
ENDSEC
  0
EOF
